  0
SECTION
  2
HEADER
  9
$ACADVER
  1
AC1015
  9
$ACADMAINTVER
 70
     6
  9
$DWGCODEPAGE
  3
ANSI_1251
  9
$INSBASE
 10
0.0
 20
0.0
 30
0.0
  9
$EXTMIN
 10
-1.1490450296
 20
-20.6342512661
 30
0.0
  9
$EXTMAX
 10
78.8509549704
 20
59.3657487339
 30
0.0
  9
$LIMMIN
 10
0.0
 20
0.0
  9
$LIMMAX
 10
420.0
 20
297.0
  9
$ORTHOMODE
 70
     0
  9
$REGENMODE
 70
     1
  9
$FILLMODE
 70
     1
  9
$QTEXTMODE
 70
     0
  9
$MIRRTEXT
 70
     1
  9
$LTSCALE
 40
1.0
  9
$ATTMODE
 70
     1
  9
$TEXTSIZE
 40
4.0
  9
$TRACEWID
 40
1.0
  9
$TEXTSTYLE
  7
Standard
  9
$CLAYER
  8
0
  9
$CELTYPE
  6
ByLayer
  9
$CECOLOR
 62
   256
  9
$CELTSCALE
 40
1.0
  9
$DISPSILH
 70
     0
  9
$DIMSCALE
 40
1.0
  9
$DIMASZ
 40
6.0
  9
$DIMEXO
 40
1.0
  9
$DIMDLI
 40
3.75
  9
$DIMRND
 40
0.0
  9
$DIMDLE
 40
0.0
  9
$DIMEXE
 40
1.0
  9
$DIMTP
 40
0.0
  9
$DIMTM
 40
0.0
  9
$DIMTXT
 40
4.0
  9
$DIMCEN
 40
2.5
  9
$DIMTSZ
 40
0.0
  9
$DIMTOL
 70
     0
  9
$DIMLIM
 70
     0
  9
$DIMTIH
 70
     1
  9
$DIMTOH
 70
     1
  9
$DIMSE1
 70
     0
  9
$DIMSE2
 70
     0
  9
$DIMTAD
 70
     1
  9
$DIMZIN
 70
     0
  9
$DIMBLK
  1

  9
$DIMASO
 70
     1
  9
$DIMSHO
 70
     1
  9
$DIMPOST
  1

  9
$DIMAPOST
  1

  9
$DIMALT
 70
     0
  9
$DIMALTD
 70
     3
  9
$DIMALTF
 40
0.0393700787
  9
$DIMLFAC
 40
1.0
  9
$DIMTOFL
 70
     1
  9
$DIMTVP
 40
0.0
  9
$DIMTIX
 70
     0
  9
$DIMSOXD
 70
     0
  9
$DIMSAH
 70
     0
  9
$DIMBLK1
  1

  9
$DIMBLK2
  1

  9
$DIMSTYLE
  2
ISO-25
  9
$DIMCLRD
 70
     0
  9
$DIMCLRE
 70
     0
  9
$DIMCLRT
 70
     0
  9
$DIMTFAC
 40
1.0
  9
$DIMGAP
 40
3.0
  9
$DIMJUST
 70
     0
  9
$DIMSD1
 70
     0
  9
$DIMSD2
 70
     0
  9
$DIMTOLJ
 70
     0
  9
$DIMTZIN
 70
     0
  9
$DIMALTZ
 70
     0
  9
$DIMALTTZ
 70
     0
  9
$DIMUPT
 70
     0
  9
$DIMDEC
 70
     2
  9
$DIMTDEC
 70
     4
  9
$DIMALTU
 70
     2
  9
$DIMALTTD
 70
     3
  9
$DIMTXSTY
  7
Standard
  9
$DIMAUNIT
 70
     0
  9
$DIMADEC
 70
     2
  9
$DIMALTRND
 40
0.0
  9
$DIMAZIN
 70
     0
  9
$DIMDSEP
 70
    44
  9
$DIMATFIT
 70
     3
  9
$DIMFRAC
 70
     0
  9
$DIMLDRBLK
  1

  9
$DIMLUNIT
 70
     2
  9
$DIMLWD
 70
    -2
  9
$DIMLWE
 70
    -2
  9
$DIMTMOVE
 70
     0
  9
$LUNITS
 70
     2
  9
$LUPREC
 70
     2
  9
$SKETCHINC
 40
1.0
  9
$FILLETRAD
 40
10.0
  9
$AUNITS
 70
     0
  9
$AUPREC
 70
     2
  9
$MENU
  1
.
  9
$ELEVATION
 40
0.0
  9
$PELEVATION
 40
0.0
  9
$THICKNESS
 40
0.0
  9
$LIMCHECK
 70
     0
  9
$CHAMFERA
 40
0.0
  9
$CHAMFERB
 40
0.0
  9
$CHAMFERC
 40
0.0
  9
$CHAMFERD
 40
0.0
  9
$SKPOLY
 70
     0
  9
$TDCREATE
 40
2458523.414121771
  9
$TDUCREATE
 40
2458523.289121771
  9
$TDUPDATE
 40
2458523.414154595
  9
$TDUUPDATE
 40
2458523.289154595
  9
$TDINDWG
 40
0.0000000116
  9
$TDUSRTIMER
 40
0.0000000116
  9
$USRTIMER
 70
     1
  9
$ANGBASE
 50
0.0
  9
$ANGDIR
 70
     0
  9
$PDMODE
 70
     0
  9
$PDSIZE
 40
-1.0
  9
$PLINEWID
 40
0.0
  9
$SPLFRAME
 70
     0
  9
$SPLINETYPE
 70
     6
  9
$SPLINESEGS
 70
     8
  9
$HANDSEED
  5
5B4
  9
$SURFTAB1
 70
     6
  9
$SURFTAB2
 70
     6
  9
$SURFTYPE
 70
     6
  9
$SURFU
 70
     6
  9
$SURFV
 70
     6
  9
$UCSBASE
  2

  9
$UCSNAME
  2

  9
$UCSORG
 10
0.0
 20
0.0
 30
0.0
  9
$UCSXDIR
 10
1.0
 20
0.0
 30
0.0
  9
$UCSYDIR
 10
0.0
 20
1.0
 30
0.0
  9
$UCSORTHOREF
  2

  9
$UCSORTHOVIEW
 70
     0
  9
$UCSORGTOP
 10
0.0
 20
0.0
 30
0.0
  9
$UCSORGBOTTOM
 10
0.0
 20
0.0
 30
0.0
  9
$UCSORGLEFT
 10
0.0
 20
0.0
 30
0.0
  9
$UCSORGRIGHT
 10
0.0
 20
0.0
 30
0.0
  9
$UCSORGFRONT
 10
0.0
 20
0.0
 30
0.0
  9
$UCSORGBACK
 10
0.0
 20
0.0
 30
0.0
  9
$PUCSBASE
  2

  9
$PUCSNAME
  2

  9
$PUCSORG
 10
0.0
 20
0.0
 30
0.0
  9
$PUCSXDIR
 10
1.0
 20
0.0
 30
0.0
  9
$PUCSYDIR
 10
0.0
 20
1.0
 30
0.0
  9
$PUCSORTHOREF
  2

  9
$PUCSORTHOVIEW
 70
     0
  9
$PUCSORGTOP
 10
0.0
 20
0.0
 30
0.0
  9
$PUCSORGBOTTOM
 10
0.0
 20
0.0
 30
0.0
  9
$PUCSORGLEFT
 10
0.0
 20
0.0
 30
0.0
  9
$PUCSORGRIGHT
 10
0.0
 20
0.0
 30
0.0
  9
$PUCSORGFRONT
 10
0.0
 20
0.0
 30
0.0
  9
$PUCSORGBACK
 10
0.0
 20
0.0
 30
0.0
  9
$USERI1
 70
     0
  9
$USERI2
 70
     0
  9
$USERI3
 70
     0
  9
$USERI4
 70
     0
  9
$USERI5
 70
     0
  9
$USERR1
 40
0.0
  9
$USERR2
 40
0.0
  9
$USERR3
 40
0.0
  9
$USERR4
 40
0.0
  9
$USERR5
 40
0.0
  9
$WORLDVIEW
 70
     1
  9
$SHADEDGE
 70
     3
  9
$SHADEDIF
 70
    70
  9
$TILEMODE
 70
     1
  9
$MAXACTVP
 70
    64
  9
$PINSBASE
 10
0.0
 20
0.0
 30
0.0
  9
$PLIMCHECK
 70
     0
  9
$PEXTMIN
 10
1.0000000000E+20
 20
1.0000000000E+20
 30
1.0000000000E+20
  9
$PEXTMAX
 10
-1.0000000000E+20
 20
-1.0000000000E+20
 30
-1.0000000000E+20
  9
$PLIMMIN
 10
0.0
 20
0.0
  9
$PLIMMAX
 10
420.0
 20
297.0
  9
$UNITMODE
 70
     0
  9
$VISRETAIN
 70
     1
  9
$PLINEGEN
 70
     0
  9
$PSLTSCALE
 70
     1
  9
$TREEDEPTH
 70
  3020
  9
$CMLSTYLE
  2
Standard
  9
$CMLJUST
 70
     0
  9
$CMLSCALE
 40
20.0
  9
$PROXYGRAPHICS
 70
     1
  9
$MEASUREMENT
 70
     1
  9
$CELWEIGHT
370
    -1
  9
$ENDCAPS
280
     0
  9
$JOINSTYLE
280
     0
  9
$LWDISPLAY
290
     1
  9
$INSUNITS
 70
     4
  9
$HYPERLINKBASE
  1

  9
$STYLESHEET
  1

  9
$XEDIT
290
     1
  9
$CEPSNTYPE
380
     0
  9
$PSTYLEMODE
290
     1
  9
$FINGERPRINTGUID
  2
{385bc5b9-eb75-4aef-b6ff-95ca7d662506}
  9
$VERSIONGUID
  2
{FAEB1C32-E019-11D5-929B-00C0DF256EC4}
  9
$EXTNAMES
290
     1
  9
$PSVPSCALE
 40
0.0
  9
$OLESTARTUP
290
     0
  0
ENDSEC
  0
SECTION
  2
CLASSES
  0
CLASS
  1
ACDBDICTIONARYWDFLT
  2
AcDbDictionaryWithDefault
  3
ObjectDBX Classes
 90
        0
280
     0
281
     0
  0
CLASS
  1
VISUALSTYLE
  2
AcDbVisualStyle
  3
ObjectDBX Classes
 90
     4095
280
     0
281
     0
  0
CLASS
  1
MATERIAL
  2
AcDbMaterial
  3
ObjectDBX Classes
 90
     1153
280
     0
281
     0
  0
CLASS
  1
SCALE
  2
AcDbScale
  3
ObjectDBX Classes
 90
     1153
280
     0
281
     0
  0
CLASS
  1
TABLESTYLE
  2
AcDbTableStyle
  3
ObjectDBX Classes
 90
     4095
280
     0
281
     0
  0
CLASS
  1
MLEADERSTYLE
  2
AcDbMLeaderStyle
  3
ACDB_MLEADERSTYLE_CLASS
 90
     4095
280
     0
281
     0
  0
CLASS
  1
SUN
  2
AcDbSun
  3
SCENEOE
 90
     1153
280
     0
281
     0
  0
CLASS
  1
ACDBPLACEHOLDER
  2
AcDbPlaceHolder
  3
ObjectDBX Classes
 90
        0
280
     0
281
     0
  0
CLASS
  1
LAYOUT
  2
AcDbLayout
  3
ObjectDBX Classes
 90
        0
280
     0
281
     0
  0
ENDSEC
  0
SECTION
  2
TABLES
  0
TABLE
  2
VPORT
  5
8
330
0
100
AcDbSymbolTable
 70
     1
  0
VPORT
  5
29
330
8
100
AcDbSymbolTableRecord
100
AcDbViewportTableRecord
  2
*Active
 70
     0
 10
0.0
 20
0.0
 11
1.0
 21
1.0
 12
38.8509549704
 22
19.3657487339
 13
0.0
 23
0.0
 14
10.0
 24
10.0
 15
10.0
 25
10.0
 16
0.0
 26
0.0
 36
1.0
 17
0.0
 27
0.0
 37
0.0
 40
81.6
 41
1.0
 42
50.0
 43
0.0
 44
0.0
 50
0.0
 51
0.0
 71
     0
 72
   100
 73
     1
 74
     3
 75
     0
 76
     0
 77
     0
 78
     0
281
     0
 65
     1
110
0.0
120
0.0
130
0.0
111
1.0
121
0.0
131
0.0
112
0.0
122
1.0
132
0.0
 79
     0
146
0.0
  0
ENDTAB
  0
TABLE
  2
LTYPE
  5
5
330
0
100
AcDbSymbolTable
 70
     6
  0
LTYPE
  5
14
330
5
100
AcDbSymbolTableRecord
100
AcDbLinetypeTableRecord
  2
ByBlock
 70
     0
  3

 72
    65
 73
     0
 40
0.0
  0
LTYPE
  5
15
330
5
100
AcDbSymbolTableRecord
100
AcDbLinetypeTableRecord
  2
ByLayer
 70
     0
  3

 72
    65
 73
     0
 40
0.0
  0
LTYPE
  5
16
330
5
100
AcDbSymbolTableRecord
100
AcDbLinetypeTableRecord
  2
Continuous
 70
     0
  3
Solid line
 72
    65
 73
     0
 40
0.0
  0
LTYPE
  5
6E
330
5
100
AcDbSymbolTableRecord
100
AcDbLinetypeTableRecord
  2
HIDDEN
 70
     0
  3
Hidden __ __ __ __ __ __ __ __ __ __ __ __ __ __
 72
    65
 73
     2
 40
1.905
 49
1.27
 74
     0
 49
-0.635
 74
     0
  0
LTYPE
  5
6F
330
5
100
AcDbSymbolTableRecord
100
AcDbLinetypeTableRecord
  2
PHANTOM
 70
     0
  3
Phantom ______  __  __  ______  __  __  ______
 72
    65
 73
     6
 40
12.7
 49
6.35
 74
     0
 49
-1.27
 74
     0
 49
1.27
 74
     0
 49
-1.27
 74
     0
 49
1.27
 74
     0
 49
-1.27
 74
     0
  0
LTYPE
  5
70
330
5
100
AcDbSymbolTableRecord
100
AcDbLinetypeTableRecord
  2
CENTER
 70
     0
  3
Center ____ _ ____ _ ____ _ ____ _ ____ _ ____
 72
    65
 73
     4
 40
10.16
 49
6.35
 74
     0
 49
-1.27
 74
     0
 49
1.27
 74
     0
 49
-1.27
 74
     0
  0
LTYPE
  5
71
330
5
100
AcDbSymbolTableRecord
100
AcDbLinetypeTableRecord
  2
CENTERX2
 70
     0
  3
Center (2x) ________  __  ________  __  _____
 72
    65
 73
     4
 40
20.32
 49
12.7
 74
     0
 49
-2.54
 74
     0
 49
2.54
 74
     0
 49
-2.54
 74
     0
  0
LTYPE
  5
72
330
5
100
AcDbSymbolTableRecord
100
AcDbLinetypeTableRecord
  2
DOT2
 70
     0
  3
Dot (.5x) ........................................
 72
    65
 73
     2
 40
0.635
 49
0.0
 74
     0
 49
-0.635
 74
     0
  0
ENDTAB
  0
TABLE
  2
LAYER
  5
2
330
0
100
AcDbSymbolTable
 70
     1
  0
LAYER
  5
10
330
2
100
AcDbSymbolTableRecord
100
AcDbLayerTableRecord
  2
0
 70
     0
 62
     7
  6
Continuous
370
    -3
390
F
  0
ENDTAB
  0
TABLE
  2
STYLE
  5
3
330
0
100
AcDbSymbolTable
 70
     1
  0
STYLE
  5
11
330
3
100
AcDbSymbolTableRecord
100
AcDbTextStyleTableRecord
  2
Standard
 70
     0
 40
0.0
 41
1.0
 50
0.0
 71
     0
 42
4.0
  3
txt
  4

  0
ENDTAB
  0
TABLE
  2
VIEW
  5
6
330
0
100
AcDbSymbolTable
 70
     0
  0
ENDTAB
  0
TABLE
  2
UCS
  5
7
330
0
100
AcDbSymbolTable
 70
     0
  0
ENDTAB
  0
TABLE
  2
APPID
  5
9
330
0
100
AcDbSymbolTable
 70
     1
  0
APPID
  5
12
330
9
100
AcDbSymbolTableRecord
100
AcDbRegAppTableRecord
  2
ACAD
 70
     0
  0
ENDTAB
  0
TABLE
  2
DIMSTYLE
  5
A
330
0
100
AcDbSymbolTable
 70
     1
100
AcDbDimStyleTable
  0
DIMSTYLE
105
27
330
A
100
AcDbSymbolTableRecord
100
AcDbDimStyleTableRecord
  2
ISO-25
 70
     0
 41
2.5
 42
0.625
 43
3.75
 44
1.25
 73
     0
 74
     0
 77
     1
 78
     8
140
2.5
141
2.5
143
0.0393700787
147
0.625
171
     3
172
     1
178
     0
271
     2
272
     2
274
     3
278
    44
283
     0
284
     8
340
11
  0
ENDTAB
  0
TABLE
  2
BLOCK_RECORD
  5
1
330
0
100
AcDbSymbolTable
 70
     1
  0
BLOCK_RECORD
  5
1F
330
1
100
AcDbSymbolTableRecord
100
AcDbBlockTableRecord
  2
*Model_Space
340
22
  0
BLOCK_RECORD
  5
1B
330
1
100
AcDbSymbolTableRecord
100
AcDbBlockTableRecord
  2
*Paper_Space
340
1E
  0
BLOCK_RECORD
  5
23
330
1
100
AcDbSymbolTableRecord
100
AcDbBlockTableRecord
  2
*Paper_Space0
340
26
  0
ENDTAB
  0
ENDSEC
  0
SECTION
  2
BLOCKS
  0
BLOCK
  5
20
330
1F
100
AcDbEntity
  8
0
100
AcDbBlockBegin
  2
*Model_Space
 70
     0
 10
0.0
 20
0.0
 30
0.0
  3
*Model_Space
  1

  0
ENDBLK
  5
21
330
1F
100
AcDbEntity
  8
0
100
AcDbBlockEnd
  0
BLOCK
  5
1C
330
1B
100
AcDbEntity
 67
     1
  8
0
100
AcDbBlockBegin
  2
*Paper_Space
 70
     0
 10
0.0
 20
0.0
 30
0.0
  3
*Paper_Space
  1

  0
ENDBLK
  5
1D
330
1B
100
AcDbEntity
 67
     1
  8
0
100
AcDbBlockEnd
  0
BLOCK
  5
24
330
23
100
AcDbEntity
  8
0
100
AcDbBlockBegin
  2
*Paper_Space0
 70
     0
 10
0.0
 20
0.0
 30
0.0
  3
*Paper_Space0
  1

  0
ENDBLK
  5
25
330
23
100
AcDbEntity
  8
0
100
AcDbBlockEnd
  0
ENDSEC
  0
SECTION
  2
ENTITIES
  0
CIRCLE
  5
76
330
1F
100
AcDbEntity
  8
0
  6
Continuous
 62
     7
370
    25
100
AcDbCircle
 10
38.8509549704
 20
19.3657487339
 30
0.0
 40
17.00000000000001
  0
LINE
  5
314
330
1F
100
AcDbEntity
  8
0
  6
Continuous
 62
     7
370
    25
100
AcDbLine
 10
65.1509549704
 20
-20.6342512661
 30
0.0
 11
75.8509549704
 21
-20.6342512661
 31
0.0
  0
LINE
  5
315
330
1F
100
AcDbEntity
  8
0
  6
Continuous
 62
     7
370
    25
100
AcDbLine
 10
76.8509549704
 20
-15.1342512661
 30
0.0
 11
76.5622631151
 21
-15.1342512661
 31
0.0
  0
LINE
  5
316
330
1F
100
AcDbEntity
  8
0
  6
Continuous
 62
     7
370
    25
100
AcDbLine
 10
73.3509549704
 20
57.3657487339
 30
0.0
 11
73.3509549704
 21
57.0770568786
 31
0.0
  0
LINE
  5
317
330
1F
100
AcDbEntity
  8
0
  6
Continuous
 62
     7
370
    25
100
AcDbLine
 10
64.0503295049
 20
41.6350330613
 30
0.0
 11
63.8714297816
 21
41.5572452477
 31
0.0
  0
LINE
  5
318
330
1F
100
AcDbEntity
  8
0
  6
Continuous
 62
     7
370
    25
100
AcDbLine
 10
61.1202392978
 20
-5.8336258005
 30
0.0
 11
61.0424514842
 21
-5.6547260772
 31
0.0
  0
LINE
  5
319
330
1F
100
AcDbEntity
  8
0
  6
Continuous
 62
     7
370
    25
100
AcDbLine
 10
51.3509549704
 20
38.3657487339
 30
0.0
 11
51.3509549704
 21
35.3607479524
 31
0.0
  0
LINE
  5
31A
330
1F
100
AcDbEntity
  8
0
  6
Continuous
 62
     7
370
    25
100
AcDbLine
 10
51.7066174031
 20
39.1157487339
 30
0.0
 11
51.4179422686
 21
38.6157487339
 31
0.0
  0
LINE
  5
31B
330
1F
100
AcDbEntity
  8
0
  6
Continuous
 62
     7
370
    25
100
AcDbLine
 10
51.7066174031
 20
39.6157487339
 30
0.0
 11
51.4179422686
 21
40.1157487339
 31
0.0
  0
LINE
  5
31C
330
1F
100
AcDbEntity
  8
0
  6
Continuous
 62
     7
370
    25
100
AcDbLine
 10
51.3509549704
 20
45.2444283904
 30
0.0
 11
51.3509549704
 21
40.3657487339
 31
0.0
  0
LINE
  5
31D
330
1F
100
AcDbEntity
  8
0
  6
Continuous
 62
     7
370
    25
100
AcDbLine
 10
51.204508361
 20
45.597981781
 30
0.0
 11
46.9474015798
 21
49.8550885622
 31
0.0
  0
LINE
  5
31E
330
1F
100
AcDbEntity
  8
0
  6
Continuous
 62
     7
370
    25
100
AcDbLine
 10
46.8009549704
 20
50.2086419527
 30
0.0
 11
46.8009549704
 21
51.9514089057
 31
0.0
  0
LINE
  5
31F
330
1F
100
AcDbEntity
  8
0
  6
Continuous
 62
     7
370
    25
100
AcDbLine
 10
46.8009549704
 20
51.9514089057
 30
0.0
 11
46.7859645903
 21
51.9458782982
 31
0.0
  0
LINE
  5
320
330
1F
100
AcDbEntity
  8
0
  6
Continuous
 62
     7
370
    25
100
AcDbLine
 10
46.799253425
 20
55.8640529496
 30
0.0
 11
46.7859645903
 21
51.9458782982
 31
0.0
  0
LINE
  5
321
330
1F
100
AcDbEntity
  8
0
  6
Continuous
 62
     7
370
    25
100
AcDbLine
 10
46.2992563007
 20
56.3657487339
 30
0.0
 11
31.4026536402
 21
56.3657487339
 31
0.0
  0
LINE
  5
322
330
1F
100
AcDbEntity
  8
0
  6
Continuous
 62
     7
370
    25
100
AcDbLine
 10
30.9026565159
 20
55.8640529496
 30
0.0
 11
30.9159453506
 21
51.9458782982
 31
0.0
  0
LINE
  5
323
330
1F
100
AcDbEntity
  8
0
  6
Continuous
 62
     7
370
    25
100
AcDbLine
 10
30.9009549704
 20
51.9514089057
 30
0.0
 11
30.9159453506
 21
51.9458782982
 31
0.0
  0
LINE
  5
324
330
1F
100
AcDbEntity
  8
0
  6
Continuous
 62
     7
370
    25
100
AcDbLine
 10
30.9009549704
 20
50.2086419527
 30
0.0
 11
30.9009549704
 21
51.9514089057
 31
0.0
  0
LINE
  5
325
330
1F
100
AcDbEntity
  8
0
  6
Continuous
 62
     7
370
    25
100
AcDbLine
 10
26.4974015798
 20
45.597981781
 30
0.0
 11
30.754508361
 21
49.8550885622
 31
0.0
  0
LINE
  5
326
330
1F
100
AcDbEntity
  8
0
  6
Continuous
 62
     7
370
    25
100
AcDbLine
 10
26.3509549704
 20
45.2444283904
 30
0.0
 11
26.3509549704
 21
40.3657487339
 31
0.0
  0
LINE
  5
327
330
1F
100
AcDbEntity
  8
0
  6
Continuous
 62
     7
370
    25
100
AcDbLine
 10
25.9952925377
 20
39.6157487339
 30
0.0
 11
26.2839676723
 21
40.1157487339
 31
0.0
  0
LINE
  5
328
330
1F
100
AcDbEntity
  8
0
  6
Continuous
 62
     7
370
    25
100
AcDbLine
 10
25.9952925377
 20
39.1157487339
 30
0.0
 11
26.2839676723
 21
38.6157487339
 31
0.0
  0
LINE
  5
329
330
1F
100
AcDbEntity
  8
0
  6
Continuous
 62
     7
370
    25
100
AcDbLine
 10
26.3509549704
 20
38.3657487339
 30
0.0
 11
26.3509549704
 21
35.3607479524
 31
0.0
  0
LINE
  5
32A
330
1F
100
AcDbEntity
  8
0
  6
Continuous
 62
     7
370
    25
100
AcDbLine
 10
25.9952925377
 20
-0.3842512661
 30
0.0
 11
26.2839676723
 21
0.1157487339
 31
0.0
  0
LINE
  5
32B
330
1F
100
AcDbEntity
  8
0
  6
Continuous
 62
     7
370
    25
100
AcDbLine
 10
25.9952925377
 20
-0.8842512661
 30
0.0
 11
26.2839676723
 21
-1.3842512661
 31
0.0
  0
LINE
  5
32C
330
1F
100
AcDbEntity
  8
0
  6
Continuous
 62
     7
370
    25
100
AcDbLine
 10
26.3509549704
 20
-6.5129309225
 30
0.0
 11
26.3509549704
 21
-1.6342512661
 31
0.0
  0
LINE
  5
32D
330
1F
100
AcDbEntity
  8
0
  6
Continuous
 62
     7
370
    25
100
AcDbLine
 10
26.4974015798
 20
-6.8664843131
 30
0.0
 11
30.754508361
 21
-11.1235910943
 31
0.0
  0
LINE
  5
32E
330
1F
100
AcDbEntity
  8
0
  6
Continuous
 62
     7
370
    25
100
AcDbLine
 10
30.9009549704
 20
-11.4771444849
 30
0.0
 11
30.9009549704
 21
-13.2199114378
 31
0.0
  0
LINE
  5
32F
330
1F
100
AcDbEntity
  8
0
  6
Continuous
 62
     7
370
    25
100
AcDbLine
 10
30.9009549704
 20
-13.2199114378
 30
0.0
 11
30.9159453506
 21
-13.2143808303
 31
0.0
  0
LINE
  5
330
330
1F
100
AcDbEntity
  8
0
  6
Continuous
 62
     7
370
    25
100
AcDbLine
 10
30.9026565159
 20
-17.1325554817
 30
0.0
 11
30.9159453506
 21
-13.2143808303
 31
0.0
  0
LINE
  5
331
330
1F
100
AcDbEntity
  8
0
  6
Continuous
 62
     7
370
    25
100
AcDbLine
 10
31.4026536402
 20
-17.6342512661
 30
0.0
 11
46.2992563007
 21
-17.6342512661
 31
0.0
  0
LINE
  5
332
330
1F
100
AcDbEntity
  8
0
  6
Continuous
 62
     7
370
    25
100
AcDbLine
 10
46.799253425
 20
-17.1325554817
 30
0.0
 11
46.7859645903
 21
-13.2143808303
 31
0.0
  0
LINE
  5
333
330
1F
100
AcDbEntity
  8
0
  6
Continuous
 62
     7
370
    25
100
AcDbLine
 10
46.8009549704
 20
-13.2199114378
 30
0.0
 11
46.7859645903
 21
-13.2143808303
 31
0.0
  0
LINE
  5
334
330
1F
100
AcDbEntity
  8
0
  6
Continuous
 62
     7
370
    25
100
AcDbLine
 10
46.8009549704
 20
-11.4771444849
 30
0.0
 11
46.8009549704
 21
-13.2199114378
 31
0.0
  0
LINE
  5
335
330
1F
100
AcDbEntity
  8
0
  6
Continuous
 62
     7
370
    25
100
AcDbLine
 10
51.204508361
 20
-6.8664843131
 30
0.0
 11
46.9474015798
 21
-11.1235910943
 31
0.0
  0
LINE
  5
336
330
1F
100
AcDbEntity
  8
0
  6
Continuous
 62
     7
370
    25
100
AcDbLine
 10
51.3509549704
 20
-6.5129309225
 30
0.0
 11
51.3509549704
 21
-1.6342512661
 31
0.0
  0
LINE
  5
337
330
1F
100
AcDbEntity
  8
0
  6
Continuous
 62
     7
370
    25
100
AcDbLine
 10
51.7066174031
 20
-0.8842512661
 30
0.0
 11
51.4179422686
 21
-1.3842512661
 31
0.0
  0
LINE
  5
338
330
1F
100
AcDbEntity
  8
0
  6
Continuous
 62
     7
370
    25
100
AcDbLine
 10
51.7066174031
 20
-0.3842512661
 30
0.0
 11
51.4179422686
 21
0.1157487339
 31
0.0
  0
LINE
  5
339
330
1F
100
AcDbEntity
  8
0
  6
Continuous
 62
     7
370
    25
100
AcDbLine
 10
51.3509549704
 20
3.3707495154
 30
0.0
 11
51.3509549704
 21
0.3657487339
 31
0.0
  0
LINE
  5
33A
330
1F
100
AcDbEntity
  8
0
  6
Continuous
 62
     7
370
    25
100
AcDbLine
 10
26.3509549704
 20
3.3707495154
 30
0.0
 11
26.3509549704
 21
0.3657487339
 31
0.0
  0
LINE
  5
33B
330
1F
100
AcDbEntity
  8
0
  6
Continuous
 62
     7
370
    25
100
AcDbLine
 10
64.6509549704
 20
-20.1342512661
 30
0.0
 11
64.6509549704
 21
-19.3342512661
 31
0.0
  0
LINE
  5
33C
330
1F
100
AcDbEntity
  8
0
  6
Continuous
 62
     7
370
    25
100
AcDbLine
 10
64.4509549704
 20
-19.1342512661
 30
0.0
 11
64.0509549704
 21
-19.1342512661
 31
0.0
  0
LINE
  5
33D
330
1F
100
AcDbEntity
  8
0
  6
Continuous
 62
     7
370
    25
100
AcDbLine
 10
63.8509549704
 20
-18.9342512661
 30
0.0
 11
63.8509549704
 21
-15.1342512661
 31
0.0
  0
LINE
  5
33E
330
1F
100
AcDbEntity
  8
0
  6
Continuous
 62
     7
370
    25
100
AcDbLine
 10
64.3509549704
 20
-14.6342512661
 30
0.0
 11
68.4009549704
 21
-14.6342512661
 31
0.0
  0
LINE
  5
33F
330
1F
100
AcDbEntity
  8
0
  6
Continuous
 62
     7
370
    25
100
AcDbLine
 10
68.9009549704
 20
-14.1342512661
 30
0.0
 11
68.9009549704
 21
-12.3055716096
 31
0.0
  0
LINE
  5
340
330
1F
100
AcDbEntity
  8
0
  6
Continuous
 62
     7
370
    25
100
AcDbLine
 10
65.0831880175
 20
-8.2806978755
 30
0.0
 11
68.754508361
 21
-11.952018219
 31
0.0
  0
LINE
  5
341
330
1F
100
AcDbEntity
  8
0
  6
Continuous
 62
     7
370
    25
100
AcDbLine
 10
64.7296346269
 20
-8.1342512661
 30
0.0
 11
59.8509549704
 21
-8.1342512661
 31
0.0
  0
LINE
  5
342
330
1F
100
AcDbEntity
  8
0
  6
Continuous
 62
     7
370
    25
100
AcDbLine
 10
59.1009549704
 20
-7.7785888334
 30
0.0
 11
59.6009549704
 21
-8.067263968
 31
0.0
  0
LINE
  5
343
330
1F
100
AcDbEntity
  8
0
  6
Continuous
 62
     7
370
    25
100
AcDbLine
 10
58.6009549704
 20
-7.7785888334
 30
0.0
 11
58.1009549704
 21
-8.067263968
 31
0.0
  0
LINE
  5
344
330
1F
100
AcDbEntity
  8
0
  6
Continuous
 62
     7
370
    25
100
AcDbLine
 10
57.8509549704
 20
-8.1342512661
 30
0.0
 11
52.972275314
 21
-8.1342512661
 31
0.0
  0
LINE
  5
345
330
1F
100
AcDbEntity
  8
0
  6
Continuous
 62
     7
370
    25
100
AcDbLine
 10
52.6187219234
 20
-8.2806978755
 30
0.0
 11
48.9474015798
 21
-11.952018219
 31
0.0
  0
LINE
  5
346
330
1F
100
AcDbEntity
  8
0
  6
Continuous
 62
     7
370
    25
100
AcDbLine
 10
48.8009549704
 20
-14.1342512661
 30
0.0
 11
48.8009549704
 21
-12.3055716096
 31
0.0
  0
LINE
  5
347
330
1F
100
AcDbEntity
  8
0
  6
Continuous
 62
     7
370
    25
100
AcDbLine
 10
53.3509549704
 20
-14.6342512661
 30
0.0
 11
49.3009549704
 21
-14.6342512661
 31
0.0
  0
LINE
  5
348
330
1F
100
AcDbEntity
  8
0
  6
Continuous
 62
     7
370
    25
100
AcDbLine
 10
53.8509549704
 20
-18.9342512661
 30
0.0
 11
53.8509549704
 21
-15.1342512661
 31
0.0
  0
LINE
  5
349
330
1F
100
AcDbEntity
  8
0
  6
Continuous
 62
     7
370
    25
100
AcDbLine
 10
53.2509549704
 20
-19.1342512661
 30
0.0
 11
53.6509549704
 21
-19.1342512661
 31
0.0
  0
LINE
  5
34A
330
1F
100
AcDbEntity
  8
0
  6
Continuous
 62
     7
370
    25
100
AcDbLine
 10
53.0509549704
 20
-20.1342512661
 30
0.0
 11
53.0509549704
 21
-19.3342512661
 31
0.0
  0
LINE
  5
34B
330
1F
100
AcDbEntity
  8
0
  6
Continuous
 62
     7
370
    25
100
AcDbLine
 10
52.5509549704
 20
-20.6342512661
 30
0.0
 11
45.4609549704
 21
-20.6342512661
 31
0.0
  0
LINE
  5
34C
330
1F
100
AcDbEntity
  8
0
  6
Continuous
 62
     7
370
    25
100
AcDbLine
 10
44.9609549704
 20
-19.8342512661
 30
0.0
 11
44.9609549704
 21
-20.1342512661
 31
0.0
  0
LINE
  5
34D
330
1F
100
AcDbEntity
  8
0
  6
Continuous
 62
     7
370
    25
100
AcDbLine
 10
32.9409549704
 20
-19.6342512661
 30
0.0
 11
44.7609549704
 21
-19.6342512661
 31
0.0
  0
LINE
  5
34E
330
1F
100
AcDbEntity
  8
0
  6
Continuous
 62
     7
370
    25
100
AcDbLine
 10
32.7409549704
 20
-19.8342512661
 30
0.0
 11
32.7409549704
 21
-20.1342512661
 31
0.0
  0
LINE
  5
34F
330
1F
100
AcDbEntity
  8
0
  6
Continuous
 62
     7
370
    25
100
AcDbLine
 10
25.1509549704
 20
-20.6342512661
 30
0.0
 11
32.2409549704
 21
-20.6342512661
 31
0.0
  0
LINE
  5
350
330
1F
100
AcDbEntity
  8
0
  6
Continuous
 62
     7
370
    25
100
AcDbLine
 10
24.6509549704
 20
-20.1342512661
 30
0.0
 11
24.6509549704
 21
-19.3342512661
 31
0.0
  0
LINE
  5
351
330
1F
100
AcDbEntity
  8
0
  6
Continuous
 62
     7
370
    25
100
AcDbLine
 10
24.4509549704
 20
-19.1342512661
 30
0.0
 11
24.0509549704
 21
-19.1342512661
 31
0.0
  0
LINE
  5
352
330
1F
100
AcDbEntity
  8
0
  6
Continuous
 62
     7
370
    25
100
AcDbLine
 10
23.8509549704
 20
-18.9342512661
 30
0.0
 11
23.8509549704
 21
-15.1342512661
 31
0.0
  0
LINE
  5
353
330
1F
100
AcDbEntity
  8
0
  6
Continuous
 62
     7
370
    25
100
AcDbLine
 10
24.3509549704
 20
-14.6342512661
 30
0.0
 11
28.4009549704
 21
-14.6342512661
 31
0.0
  0
LINE
  5
354
330
1F
100
AcDbEntity
  8
0
  6
Continuous
 62
     7
370
    25
100
AcDbLine
 10
28.9009549704
 20
-14.1342512661
 30
0.0
 11
28.9009549704
 21
-12.3055716096
 31
0.0
  0
LINE
  5
355
330
1F
100
AcDbEntity
  8
0
  6
Continuous
 62
     7
370
    25
100
AcDbLine
 10
25.0831880175
 20
-8.2806978755
 30
0.0
 11
28.754508361
 21
-11.952018219
 31
0.0
  0
LINE
  5
356
330
1F
100
AcDbEntity
  8
0
  6
Continuous
 62
     7
370
    25
100
AcDbLine
 10
19.8509549704
 20
-8.1342512661
 30
0.0
 11
24.7296346269
 21
-8.1342512661
 31
0.0
  0
LINE
  5
357
330
1F
100
AcDbEntity
  8
0
  6
Continuous
 62
     7
370
    25
100
AcDbLine
 10
19.1009549704
 20
-7.7785888334
 30
0.0
 11
19.6009549704
 21
-8.067263968
 31
0.0
  0
LINE
  5
358
330
1F
100
AcDbEntity
  8
0
  6
Continuous
 62
     7
370
    25
100
AcDbLine
 10
18.6009549704
 20
-7.7785888334
 30
0.0
 11
18.1009549704
 21
-8.067263968
 31
0.0
  0
LINE
  5
359
330
1F
100
AcDbEntity
  8
0
  6
Continuous
 62
     7
370
    25
100
AcDbLine
 10
12.972275314
 20
-8.1342512661
 30
0.0
 11
17.8509549704
 21
-8.1342512661
 31
0.0
  0
LINE
  5
35A
330
1F
100
AcDbEntity
  8
0
  6
Continuous
 62
     7
370
    25
100
AcDbLine
 10
12.6187219234
 20
-8.2806978755
 30
0.0
 11
8.9474015798
 21
-11.952018219
 31
0.0
  0
LINE
  5
35B
330
1F
100
AcDbEntity
  8
0
  6
Continuous
 62
     7
370
    25
100
AcDbLine
 10
8.8009549704
 20
-14.1342512661
 30
0.0
 11
8.8009549704
 21
-12.3055716096
 31
0.0
  0
LINE
  5
35C
330
1F
100
AcDbEntity
  8
0
  6
Continuous
 62
     7
370
    25
100
AcDbLine
 10
13.3509549704
 20
-14.6342512661
 30
0.0
 11
9.3009549704
 21
-14.6342512661
 31
0.0
  0
LINE
  5
35D
330
1F
100
AcDbEntity
  8
0
  6
Continuous
 62
     7
370
    25
100
AcDbLine
 10
13.8509549704
 20
-18.9342512661
 30
0.0
 11
13.8509549704
 21
-15.1342512661
 31
0.0
  0
LINE
  5
35E
330
1F
100
AcDbEntity
  8
0
  6
Continuous
 62
     7
370
    25
100
AcDbLine
 10
13.2509549704
 20
-19.1342512661
 30
0.0
 11
13.6509549704
 21
-19.1342512661
 31
0.0
  0
LINE
  5
35F
330
1F
100
AcDbEntity
  8
0
  6
Continuous
 62
     7
370
    25
100
AcDbLine
 10
13.0509549704
 20
-20.1342512661
 30
0.0
 11
13.0509549704
 21
-19.3342512661
 31
0.0
  0
LINE
  5
360
330
1F
100
AcDbEntity
  8
0
  6
Continuous
 62
     7
370
    25
100
AcDbLine
 10
12.5509549704
 20
-20.6342512661
 30
0.0
 11
1.8509549704
 21
-20.6342512661
 31
0.0
  0
LINE
  5
361
330
1F
100
AcDbEntity
  8
0
  6
Continuous
 62
     7
370
    25
100
AcDbLine
 10
-1.1490450296
 20
-6.9342512661
 30
0.0
 11
-1.1490450296
 21
-17.6342512661
 31
0.0
  0
LINE
  5
362
330
1F
100
AcDbEntity
  8
0
  6
Continuous
 62
     7
370
    25
100
AcDbLine
 10
-0.6490450296
 20
-6.4342512661
 30
0.0
 11
0.1509549704
 21
-6.4342512661
 31
0.0
  0
LINE
  5
363
330
1F
100
AcDbEntity
  8
0
  6
Continuous
 62
     7
370
    25
100
AcDbLine
 10
0.3509549704
 20
-6.2342512661
 30
0.0
 11
0.3509549704
 21
-5.8342512661
 31
0.0
  0
LINE
  5
364
330
1F
100
AcDbEntity
  8
0
  6
Continuous
 62
     7
370
    25
100
AcDbLine
 10
0.5509549704
 20
-5.6342512661
 30
0.0
 11
4.3509549704
 21
-5.6342512661
 31
0.0
  0
LINE
  5
365
330
1F
100
AcDbEntity
  8
0
  6
Continuous
 62
     7
370
    25
100
AcDbLine
 10
4.8509549704
 20
-6.1342512661
 30
0.0
 11
4.8509549704
 21
-10.1842512661
 31
0.0
  0
LINE
  5
366
330
1F
100
AcDbEntity
  8
0
  6
Continuous
 62
     7
370
    25
100
AcDbLine
 10
5.3509549704
 20
-10.6842512661
 30
0.0
 11
7.1796346269
 21
-10.6842512661
 31
0.0
  0
LINE
  5
367
330
1F
100
AcDbEntity
  8
0
  6
Continuous
 62
     7
370
    25
100
AcDbLine
 10
11.204508361
 20
-6.8664843131
 30
0.0
 11
7.5331880175
 21
-10.5378046567
 31
0.0
  0
LINE
  5
368
330
1F
100
AcDbEntity
  8
0
  6
Continuous
 62
     7
370
    25
100
AcDbLine
 10
11.3509549704
 20
-6.5129309225
 30
0.0
 11
11.3509549704
 21
-1.6342512661
 31
0.0
  0
LINE
  5
369
330
1F
100
AcDbEntity
  8
0
  6
Continuous
 62
     7
370
    25
100
AcDbLine
 10
11.7066174031
 20
-0.8842512661
 30
0.0
 11
11.4179422686
 21
-1.3842512661
 31
0.0
  0
LINE
  5
36A
330
1F
100
AcDbEntity
  8
0
  6
Continuous
 62
     7
370
    25
100
AcDbLine
 10
11.7066174031
 20
-0.3842512661
 30
0.0
 11
11.4179422686
 21
0.1157487339
 31
0.0
  0
LINE
  5
36B
330
1F
100
AcDbEntity
  8
0
  6
Continuous
 62
     7
370
    25
100
AcDbLine
 10
11.3509549704
 20
0.3657487339
 30
0.0
 11
11.3509549704
 21
5.2444283904
 31
0.0
  0
LINE
  5
36C
330
1F
100
AcDbEntity
  8
0
  6
Continuous
 62
     7
370
    25
100
AcDbLine
 10
11.204508361
 20
5.597981781
 30
0.0
 11
7.5331880175
 21
9.2693021245
 31
0.0
  0
LINE
  5
36D
330
1F
100
AcDbEntity
  8
0
  6
Continuous
 62
     7
370
    25
100
AcDbLine
 10
5.3509549704
 20
9.4157487339
 30
0.0
 11
7.1796346269
 21
9.4157487339
 31
0.0
  0
LINE
  5
36E
330
1F
100
AcDbEntity
  8
0
  6
Continuous
 62
     7
370
    25
100
AcDbLine
 10
4.8509549704
 20
4.8657487339
 30
0.0
 11
4.8509549704
 21
8.9157487339
 31
0.0
  0
LINE
  5
36F
330
1F
100
AcDbEntity
  8
0
  6
Continuous
 62
     7
370
    25
100
AcDbLine
 10
0.5509549704
 20
4.3657487339
 30
0.0
 11
4.3509549704
 21
4.3657487339
 31
0.0
  0
LINE
  5
370
330
1F
100
AcDbEntity
  8
0
  6
Continuous
 62
     7
370
    25
100
AcDbLine
 10
0.3509549704
 20
4.9657487339
 30
0.0
 11
0.3509549704
 21
4.5657487339
 31
0.0
  0
LINE
  5
371
330
1F
100
AcDbEntity
  8
0
  6
Continuous
 62
     7
370
    25
100
AcDbLine
 10
-0.6490450296
 20
5.1657487339
 30
0.0
 11
0.1509549704
 21
5.1657487339
 31
0.0
  0
LINE
  5
372
330
1F
100
AcDbEntity
  8
0
  6
Continuous
 62
     7
370
    25
100
AcDbLine
 10
-1.1490450296
 20
5.6657487339
 30
0.0
 11
-1.1490450296
 21
12.7557487339
 31
0.0
  0
LINE
  5
373
330
1F
100
AcDbEntity
  8
0
  6
Continuous
 62
     7
370
    25
100
AcDbLine
 10
-0.3490450296
 20
13.2557487339
 30
0.0
 11
-0.6490450296
 21
13.2557487339
 31
0.0
  0
LINE
  5
374
330
1F
100
AcDbEntity
  8
0
  6
Continuous
 62
     7
370
    25
100
AcDbLine
 10
-0.1490450296
 20
13.4557487339
 30
0.0
 11
-0.1490450296
 21
25.2757487339
 31
0.0
  0
LINE
  5
375
330
1F
100
AcDbEntity
  8
0
  6
Continuous
 62
     7
370
    25
100
AcDbLine
 10
-0.3490450296
 20
25.4757487339
 30
0.0
 11
-0.6490450296
 21
25.4757487339
 31
0.0
  0
LINE
  5
376
330
1F
100
AcDbEntity
  8
0
  6
Continuous
 62
     7
370
    25
100
AcDbLine
 10
-1.1490450296
 20
33.0657487339
 30
0.0
 11
-1.1490450296
 21
25.9757487339
 31
0.0
  0
LINE
  5
377
330
1F
100
AcDbEntity
  8
0
  6
Continuous
 62
     7
370
    25
100
AcDbLine
 10
-0.6490450296
 20
33.5657487339
 30
0.0
 11
0.1509549704
 21
33.5657487339
 31
0.0
  0
LINE
  5
378
330
1F
100
AcDbEntity
  8
0
  6
Continuous
 62
     7
370
    25
100
AcDbLine
 10
0.3509549704
 20
33.7657487339
 30
0.0
 11
0.3509549704
 21
34.1657487339
 31
0.0
  0
LINE
  5
379
330
1F
100
AcDbEntity
  8
0
  6
Continuous
 62
     7
370
    25
100
AcDbLine
 10
0.5509549704
 20
34.3657487339
 30
0.0
 11
4.3509549704
 21
34.3657487339
 31
0.0
  0
LINE
  5
37A
330
1F
100
AcDbEntity
  8
0
  6
Continuous
 62
     7
370
    25
100
AcDbLine
 10
4.8509549704
 20
33.8657487339
 30
0.0
 11
4.8509549704
 21
29.8157487339
 31
0.0
  0
LINE
  5
37B
330
1F
100
AcDbEntity
  8
0
  6
Continuous
 62
     7
370
    25
100
AcDbLine
 10
5.3509549704
 20
29.3157487339
 30
0.0
 11
7.1796346269
 21
29.3157487339
 31
0.0
  0
LINE
  5
37C
330
1F
100
AcDbEntity
  8
0
  6
Continuous
 62
     7
370
    25
100
AcDbLine
 10
11.204508361
 20
33.1335156869
 30
0.0
 11
7.5331880175
 21
29.4621953433
 31
0.0
  0
LINE
  5
37D
330
1F
100
AcDbEntity
  8
0
  6
Continuous
 62
     7
370
    25
100
AcDbLine
 10
11.3509549704
 20
38.3657487339
 30
0.0
 11
11.3509549704
 21
33.4870690775
 31
0.0
  0
LINE
  5
37E
330
1F
100
AcDbEntity
  8
0
  6
Continuous
 62
     7
370
    25
100
AcDbLine
 10
11.7066174031
 20
39.1157487339
 30
0.0
 11
11.4179422686
 21
38.6157487339
 31
0.0
  0
LINE
  5
37F
330
1F
100
AcDbEntity
  8
0
  6
Continuous
 62
     7
370
    25
100
AcDbLine
 10
11.7066174031
 20
39.6157487339
 30
0.0
 11
11.4179422686
 21
40.1157487339
 31
0.0
  0
LINE
  5
380
330
1F
100
AcDbEntity
  8
0
  6
Continuous
 62
     7
370
    25
100
AcDbLine
 10
11.3509549704
 20
45.2444283904
 30
0.0
 11
11.3509549704
 21
40.3657487339
 31
0.0
  0
LINE
  5
381
330
1F
100
AcDbEntity
  8
0
  6
Continuous
 62
     7
370
    25
100
AcDbLine
 10
11.204508361
 20
45.597981781
 30
0.0
 11
7.5331880175
 21
49.2693021245
 31
0.0
  0
LINE
  5
382
330
1F
100
AcDbEntity
  8
0
  6
Continuous
 62
     7
370
    25
100
AcDbLine
 10
5.3509549704
 20
49.4157487339
 30
0.0
 11
7.1796346269
 21
49.4157487339
 31
0.0
  0
LINE
  5
383
330
1F
100
AcDbEntity
  8
0
  6
Continuous
 62
     7
370
    25
100
AcDbLine
 10
4.8509549704
 20
44.8657487339
 30
0.0
 11
4.8509549704
 21
48.9157487339
 31
0.0
  0
LINE
  5
384
330
1F
100
AcDbEntity
  8
0
  6
Continuous
 62
     7
370
    25
100
AcDbLine
 10
0.5509549704
 20
44.3657487339
 30
0.0
 11
4.3509549704
 21
44.3657487339
 31
0.0
  0
LINE
  5
385
330
1F
100
AcDbEntity
  8
0
  6
Continuous
 62
     7
370
    25
100
AcDbLine
 10
0.3509549704
 20
44.9657487339
 30
0.0
 11
0.3509549704
 21
44.5657487339
 31
0.0
  0
LINE
  5
386
330
1F
100
AcDbEntity
  8
0
  6
Continuous
 62
     7
370
    25
100
AcDbLine
 10
-0.6490450296
 20
45.1657487339
 30
0.0
 11
0.1509549704
 21
45.1657487339
 31
0.0
  0
LINE
  5
387
330
1F
100
AcDbEntity
  8
0
  6
Continuous
 62
     7
370
    25
100
AcDbLine
 10
-1.1490450296
 20
45.6657487339
 30
0.0
 11
-1.1490450296
 21
56.3657487339
 31
0.0
  0
LINE
  5
388
330
1F
100
AcDbEntity
  8
0
  6
Continuous
 62
     7
370
    25
100
AcDbLine
 10
12.5509549704
 20
59.3657487339
 30
0.0
 11
1.8509549704
 21
59.3657487339
 31
0.0
  0
LINE
  5
389
330
1F
100
AcDbEntity
  8
0
  6
Continuous
 62
     7
370
    25
100
AcDbLine
 10
13.0509549704
 20
58.8657487339
 30
0.0
 11
13.0509549704
 21
58.0657487339
 31
0.0
  0
LINE
  5
38A
330
1F
100
AcDbEntity
  8
0
  6
Continuous
 62
     7
370
    25
100
AcDbLine
 10
13.2509549704
 20
57.8657487339
 30
0.0
 11
13.6509549704
 21
57.8657487339
 31
0.0
  0
LINE
  5
38B
330
1F
100
AcDbEntity
  8
0
  6
Continuous
 62
     7
370
    25
100
AcDbLine
 10
13.8509549704
 20
57.6657487339
 30
0.0
 11
13.8509549704
 21
53.8657487339
 31
0.0
  0
LINE
  5
38C
330
1F
100
AcDbEntity
  8
0
  6
Continuous
 62
     7
370
    25
100
AcDbLine
 10
13.3509549704
 20
53.3657487339
 30
0.0
 11
9.3009549704
 21
53.3657487339
 31
0.0
  0
LINE
  5
38D
330
1F
100
AcDbEntity
  8
0
  6
Continuous
 62
     7
370
    25
100
AcDbLine
 10
8.8009549704
 20
52.8657487339
 30
0.0
 11
8.8009549704
 21
51.0370690775
 31
0.0
  0
LINE
  5
38E
330
1F
100
AcDbEntity
  8
0
  6
Continuous
 62
     7
370
    25
100
AcDbLine
 10
12.6187219234
 20
47.0121953433
 30
0.0
 11
8.9474015798
 21
50.6835156869
 31
0.0
  0
LINE
  5
38F
330
1F
100
AcDbEntity
  8
0
  6
Continuous
 62
     7
370
    25
100
AcDbLine
 10
12.972275314
 20
46.8657487339
 30
0.0
 11
17.8509549704
 21
46.8657487339
 31
0.0
  0
LINE
  5
390
330
1F
100
AcDbEntity
  8
0
  6
Continuous
 62
     7
370
    25
100
AcDbLine
 10
18.6009549704
 20
46.5100863012
 30
0.0
 11
18.1009549704
 21
46.7987614358
 31
0.0
  0
LINE
  5
391
330
1F
100
AcDbEntity
  8
0
  6
Continuous
 62
     7
370
    25
100
AcDbLine
 10
19.1009549704
 20
46.5100863012
 30
0.0
 11
19.6009549704
 21
46.7987614358
 31
0.0
  0
LINE
  5
392
330
1F
100
AcDbEntity
  8
0
  6
Continuous
 62
     7
370
    25
100
AcDbLine
 10
19.8509549704
 20
46.8657487339
 30
0.0
 11
24.7296346269
 21
46.8657487339
 31
0.0
  0
LINE
  5
393
330
1F
100
AcDbEntity
  8
0
  6
Continuous
 62
     7
370
    25
100
AcDbLine
 10
25.0831880175
 20
47.0121953433
 30
0.0
 11
28.754508361
 21
50.6835156869
 31
0.0
  0
LINE
  5
394
330
1F
100
AcDbEntity
  8
0
  6
Continuous
 62
     7
370
    25
100
AcDbLine
 10
28.9009549704
 20
52.8657487339
 30
0.0
 11
28.9009549704
 21
51.0370690775
 31
0.0
  0
LINE
  5
395
330
1F
100
AcDbEntity
  8
0
  6
Continuous
 62
     7
370
    25
100
AcDbLine
 10
24.3509549704
 20
53.3657487339
 30
0.0
 11
28.4009549704
 21
53.3657487339
 31
0.0
  0
LINE
  5
396
330
1F
100
AcDbEntity
  8
0
  6
Continuous
 62
     7
370
    25
100
AcDbLine
 10
23.8509549704
 20
57.6657487339
 30
0.0
 11
23.8509549704
 21
53.8657487339
 31
0.0
  0
LINE
  5
397
330
1F
100
AcDbEntity
  8
0
  6
Continuous
 62
     7
370
    25
100
AcDbLine
 10
24.4509549704
 20
57.8657487339
 30
0.0
 11
24.0509549704
 21
57.8657487339
 31
0.0
  0
LINE
  5
398
330
1F
100
AcDbEntity
  8
0
  6
Continuous
 62
     7
370
    25
100
AcDbLine
 10
24.6509549704
 20
58.8657487339
 30
0.0
 11
24.6509549704
 21
58.0657487339
 31
0.0
  0
LINE
  5
399
330
1F
100
AcDbEntity
  8
0
  6
Continuous
 62
     7
370
    25
100
AcDbLine
 10
25.1509549704
 20
59.3657487339
 30
0.0
 11
32.2409549704
 21
59.3657487339
 31
0.0
  0
LINE
  5
39A
330
1F
100
AcDbEntity
  8
0
  6
Continuous
 62
     7
370
    25
100
AcDbLine
 10
32.7409549704
 20
58.5657487339
 30
0.0
 11
32.7409549704
 21
58.8657487339
 31
0.0
  0
LINE
  5
39B
330
1F
100
AcDbEntity
  8
0
  6
Continuous
 62
     7
370
    25
100
AcDbLine
 10
44.7609549704
 20
58.3657487339
 30
0.0
 11
32.9409549704
 21
58.3657487339
 31
0.0
  0
LINE
  5
39C
330
1F
100
AcDbEntity
  8
0
  6
Continuous
 62
     7
370
    25
100
AcDbLine
 10
44.9609549704
 20
58.5657487339
 30
0.0
 11
44.9609549704
 21
58.8657487339
 31
0.0
  0
LINE
  5
39D
330
1F
100
AcDbEntity
  8
0
  6
Continuous
 62
     7
370
    25
100
AcDbLine
 10
52.5509549704
 20
59.3657487339
 30
0.0
 11
45.4609549704
 21
59.3657487339
 31
0.0
  0
LINE
  5
39E
330
1F
100
AcDbEntity
  8
0
  6
Continuous
 62
     7
370
    25
100
AcDbLine
 10
53.0509549704
 20
58.8657487339
 30
0.0
 11
53.0509549704
 21
58.0657487339
 31
0.0
  0
LINE
  5
39F
330
1F
100
AcDbEntity
  8
0
  6
Continuous
 62
     7
370
    25
100
AcDbLine
 10
53.2509549704
 20
57.8657487339
 30
0.0
 11
53.6509549704
 21
57.8657487339
 31
0.0
  0
LINE
  5
3A0
330
1F
100
AcDbEntity
  8
0
  6
Continuous
 62
     7
370
    25
100
AcDbLine
 10
53.8509549704
 20
57.6657487339
 30
0.0
 11
53.8509549704
 21
53.8657487339
 31
0.0
  0
LINE
  5
3A1
330
1F
100
AcDbEntity
  8
0
  6
Continuous
 62
     7
370
    25
100
AcDbLine
 10
53.3509549704
 20
53.3657487339
 30
0.0
 11
49.3009549704
 21
53.3657487339
 31
0.0
  0
LINE
  5
3A2
330
1F
100
AcDbEntity
  8
0
  6
Continuous
 62
     7
370
    25
100
AcDbLine
 10
48.8009549704
 20
52.8657487339
 30
0.0
 11
48.8009549704
 21
51.0370690775
 31
0.0
  0
LINE
  5
3A3
330
1F
100
AcDbEntity
  8
0
  6
Continuous
 62
     7
370
    25
100
AcDbLine
 10
52.6187219234
 20
47.0121953433
 30
0.0
 11
48.9474015798
 21
50.6835156869
 31
0.0
  0
LINE
  5
3A4
330
1F
100
AcDbEntity
  8
0
  6
Continuous
 62
     7
370
    25
100
AcDbLine
 10
57.8509549704
 20
46.8657487339
 30
0.0
 11
52.972275314
 21
46.8657487339
 31
0.0
  0
LINE
  5
3A5
330
1F
100
AcDbEntity
  8
0
  6
Continuous
 62
     7
370
    25
100
AcDbLine
 10
58.6009549704
 20
46.5100863012
 30
0.0
 11
58.1009549704
 21
46.7987614358
 31
0.0
  0
LINE
  5
3A6
330
1F
100
AcDbEntity
  8
0
  6
Continuous
 62
     7
370
    25
100
AcDbLine
 10
59.1009549704
 20
46.5100863012
 30
0.0
 11
59.6009549704
 21
46.7987614358
 31
0.0
  0
LINE
  5
3A7
330
1F
100
AcDbEntity
  8
0
  6
Continuous
 62
     7
370
    25
100
AcDbLine
 10
64.7296346269
 20
46.8657487339
 30
0.0
 11
59.8509549704
 21
46.8657487339
 31
0.0
  0
LINE
  5
3A8
330
1F
100
AcDbEntity
  8
0
  6
Continuous
 62
     7
370
    25
100
AcDbLine
 10
65.0831880175
 20
47.0121953433
 30
0.0
 11
68.754508361
 21
50.6835156869
 31
0.0
  0
LINE
  5
3A9
330
1F
100
AcDbEntity
  8
0
  6
Continuous
 62
     7
370
    25
100
AcDbLine
 10
68.9009549704
 20
52.8657487339
 30
0.0
 11
68.9009549704
 21
51.0370690775
 31
0.0
  0
LINE
  5
3AA
330
1F
100
AcDbEntity
  8
0
  6
Continuous
 62
     7
370
    25
100
AcDbLine
 10
64.3509549704
 20
53.3657487339
 30
0.0
 11
68.4009549704
 21
53.3657487339
 31
0.0
  0
LINE
  5
3AB
330
1F
100
AcDbEntity
  8
0
  6
Continuous
 62
     7
370
    25
100
AcDbLine
 10
63.8509549704
 20
57.6657487339
 30
0.0
 11
63.8509549704
 21
53.8657487339
 31
0.0
  0
LINE
  5
3AC
330
1F
100
AcDbEntity
  8
0
  6
Continuous
 62
     7
370
    25
100
AcDbLine
 10
64.4509549704
 20
57.8657487339
 30
0.0
 11
64.0509549704
 21
57.8657487339
 31
0.0
  0
LINE
  5
3AD
330
1F
100
AcDbEntity
  8
0
  6
Continuous
 62
     7
370
    25
100
AcDbLine
 10
64.6509549704
 20
58.8657487339
 30
0.0
 11
64.6509549704
 21
58.0657487339
 31
0.0
  0
LINE
  5
3AE
330
1F
100
AcDbEntity
  8
0
  6
Continuous
 62
     7
370
    25
100
AcDbLine
 10
65.1509549704
 20
59.3657487339
 30
0.0
 11
75.8509549704
 21
59.3657487339
 31
0.0
  0
LINE
  5
3AF
330
1F
100
AcDbEntity
  8
0
  6
Continuous
 62
     7
370
    25
100
AcDbLine
 10
78.8509549704
 20
45.6657487339
 30
0.0
 11
78.8509549704
 21
56.3657487339
 31
0.0
  0
LINE
  5
3B0
330
1F
100
AcDbEntity
  8
0
  6
Continuous
 62
     7
370
    25
100
AcDbLine
 10
78.3509549704
 20
45.1657487339
 30
0.0
 11
77.5509549704
 21
45.1657487339
 31
0.0
  0
LINE
  5
3B1
330
1F
100
AcDbEntity
  8
0
  6
Continuous
 62
     7
370
    25
100
AcDbLine
 10
77.3509549704
 20
44.9657487339
 30
0.0
 11
77.3509549704
 21
44.5657487339
 31
0.0
  0
LINE
  5
3B2
330
1F
100
AcDbEntity
  8
0
  6
Continuous
 62
     7
370
    25
100
AcDbLine
 10
77.1509549704
 20
44.3657487339
 30
0.0
 11
73.3509549704
 21
44.3657487339
 31
0.0
  0
LINE
  5
3B3
330
1F
100
AcDbEntity
  8
0
  6
Continuous
 62
     7
370
    25
100
AcDbLine
 10
72.8509549704
 20
44.8657487339
 30
0.0
 11
72.8509549704
 21
48.9157487339
 31
0.0
  0
LINE
  5
3B4
330
1F
100
AcDbEntity
  8
0
  6
Continuous
 62
     7
370
    25
100
AcDbLine
 10
72.3509549704
 20
49.4157487339
 30
0.0
 11
70.522275314
 21
49.4157487339
 31
0.0
  0
LINE
  5
3B5
330
1F
100
AcDbEntity
  8
0
  6
Continuous
 62
     7
370
    25
100
AcDbLine
 10
66.4974015798
 20
45.597981781
 30
0.0
 11
70.1687219234
 21
49.2693021245
 31
0.0
  0
LINE
  5
3B6
330
1F
100
AcDbEntity
  8
0
  6
Continuous
 62
     7
370
    25
100
AcDbLine
 10
66.3509549704
 20
45.2444283904
 30
0.0
 11
66.3509549704
 21
40.3657487339
 31
0.0
  0
LINE
  5
3B7
330
1F
100
AcDbEntity
  8
0
  6
Continuous
 62
     7
370
    25
100
AcDbLine
 10
65.9952925377
 20
39.6157487339
 30
0.0
 11
66.2839676723
 21
40.1157487339
 31
0.0
  0
LINE
  5
3B8
330
1F
100
AcDbEntity
  8
0
  6
Continuous
 62
     7
370
    25
100
AcDbLine
 10
65.9952925377
 20
39.1157487339
 30
0.0
 11
66.2839676723
 21
38.6157487339
 31
0.0
  0
LINE
  5
3B9
330
1F
100
AcDbEntity
  8
0
  6
Continuous
 62
     7
370
    25
100
AcDbLine
 10
66.3509549704
 20
38.3657487339
 30
0.0
 11
66.3509549704
 21
33.4870690775
 31
0.0
  0
LINE
  5
3BA
330
1F
100
AcDbEntity
  8
0
  6
Continuous
 62
     7
370
    25
100
AcDbLine
 10
66.4974015798
 20
33.1335156869
 30
0.0
 11
70.1687219234
 21
29.4621953433
 31
0.0
  0
LINE
  5
3BB
330
1F
100
AcDbEntity
  8
0
  6
Continuous
 62
     7
370
    25
100
AcDbLine
 10
72.3509549704
 20
29.3157487339
 30
0.0
 11
70.522275314
 21
29.3157487339
 31
0.0
  0
LINE
  5
3BC
330
1F
100
AcDbEntity
  8
0
  6
Continuous
 62
     7
370
    25
100
AcDbLine
 10
72.8509549704
 20
33.8657487339
 30
0.0
 11
72.8509549704
 21
29.8157487339
 31
0.0
  0
LINE
  5
3BD
330
1F
100
AcDbEntity
  8
0
  6
Continuous
 62
     7
370
    25
100
AcDbLine
 10
77.1509549704
 20
34.3657487339
 30
0.0
 11
73.3509549704
 21
34.3657487339
 31
0.0
  0
LINE
  5
3BE
330
1F
100
AcDbEntity
  8
0
  6
Continuous
 62
     7
370
    25
100
AcDbLine
 10
77.3509549704
 20
33.7657487339
 30
0.0
 11
77.3509549704
 21
34.1657487339
 31
0.0
  0
LINE
  5
3BF
330
1F
100
AcDbEntity
  8
0
  6
Continuous
 62
     7
370
    25
100
AcDbLine
 10
78.3509549704
 20
33.5657487339
 30
0.0
 11
77.5509549704
 21
33.5657487339
 31
0.0
  0
LINE
  5
3C0
330
1F
100
AcDbEntity
  8
0
  6
Continuous
 62
     7
370
    25
100
AcDbLine
 10
78.8509549704
 20
33.0657487339
 30
0.0
 11
78.8509549704
 21
25.9757487339
 31
0.0
  0
LINE
  5
3C1
330
1F
100
AcDbEntity
  8
0
  6
Continuous
 62
     7
370
    25
100
AcDbLine
 10
78.0509549704
 20
25.4757487339
 30
0.0
 11
78.3509549704
 21
25.4757487339
 31
0.0
  0
LINE
  5
3C2
330
1F
100
AcDbEntity
  8
0
  6
Continuous
 62
     7
370
    25
100
AcDbLine
 10
77.8509549704
 20
25.2757487339
 30
0.0
 11
77.8509549704
 21
13.4557487339
 31
0.0
  0
LINE
  5
3C3
330
1F
100
AcDbEntity
  8
0
  6
Continuous
 62
     7
370
    25
100
AcDbLine
 10
78.0509549704
 20
13.2557487339
 30
0.0
 11
78.3509549704
 21
13.2557487339
 31
0.0
  0
LINE
  5
3C4
330
1F
100
AcDbEntity
  8
0
  6
Continuous
 62
     7
370
    25
100
AcDbLine
 10
78.8509549704
 20
5.6657487339
 30
0.0
 11
78.8509549704
 21
12.7557487339
 31
0.0
  0
LINE
  5
3C5
330
1F
100
AcDbEntity
  8
0
  6
Continuous
 62
     7
370
    25
100
AcDbLine
 10
78.3509549704
 20
5.1657487339
 30
0.0
 11
77.5509549704
 21
5.1657487339
 31
0.0
  0
LINE
  5
3C6
330
1F
100
AcDbEntity
  8
0
  6
Continuous
 62
     7
370
    25
100
AcDbLine
 10
77.3509549704
 20
4.9657487339
 30
0.0
 11
77.3509549704
 21
4.5657487339
 31
0.0
  0
LINE
  5
3C7
330
1F
100
AcDbEntity
  8
0
  6
Continuous
 62
     7
370
    25
100
AcDbLine
 10
77.1509549704
 20
4.3657487339
 30
0.0
 11
73.3509549704
 21
4.3657487339
 31
0.0
  0
LINE
  5
3C8
330
1F
100
AcDbEntity
  8
0
  6
Continuous
 62
     7
370
    25
100
AcDbLine
 10
72.8509549704
 20
4.8657487339
 30
0.0
 11
72.8509549704
 21
8.9157487339
 31
0.0
  0
LINE
  5
3C9
330
1F
100
AcDbEntity
  8
0
  6
Continuous
 62
     7
370
    25
100
AcDbLine
 10
72.3509549704
 20
9.4157487339
 30
0.0
 11
70.522275314
 21
9.4157487339
 31
0.0
  0
LINE
  5
3CA
330
1F
100
AcDbEntity
  8
0
  6
Continuous
 62
     7
370
    25
100
AcDbLine
 10
66.4974015798
 20
5.597981781
 30
0.0
 11
70.1687219234
 21
9.2693021245
 31
0.0
  0
LINE
  5
3CB
330
1F
100
AcDbEntity
  8
0
  6
Continuous
 62
     7
370
    25
100
AcDbLine
 10
66.3509549704
 20
0.3657487339
 30
0.0
 11
66.3509549704
 21
5.2444283904
 31
0.0
  0
LINE
  5
3CC
330
1F
100
AcDbEntity
  8
0
  6
Continuous
 62
     7
370
    25
100
AcDbLine
 10
65.9952925377
 20
-0.3842512661
 30
0.0
 11
66.2839676723
 21
0.1157487339
 31
0.0
  0
LINE
  5
3CD
330
1F
100
AcDbEntity
  8
0
  6
Continuous
 62
     7
370
    25
100
AcDbLine
 10
65.9952925377
 20
-0.8842512661
 30
0.0
 11
66.2839676723
 21
-1.3842512661
 31
0.0
  0
LINE
  5
3CE
330
1F
100
AcDbEntity
  8
0
  6
Continuous
 62
     7
370
    25
100
AcDbLine
 10
66.3509549704
 20
-6.5129309225
 30
0.0
 11
66.3509549704
 21
-1.6342512661
 31
0.0
  0
LINE
  5
3CF
330
1F
100
AcDbEntity
  8
0
  6
Continuous
 62
     7
370
    25
100
AcDbLine
 10
66.4974015798
 20
-6.8664843131
 30
0.0
 11
70.1687219234
 21
-10.5378046567
 31
0.0
  0
LINE
  5
3D0
330
1F
100
AcDbEntity
  8
0
  6
Continuous
 62
     7
370
    25
100
AcDbLine
 10
72.3509549704
 20
-10.6842512661
 30
0.0
 11
70.522275314
 21
-10.6842512661
 31
0.0
  0
LINE
  5
3D1
330
1F
100
AcDbEntity
  8
0
  6
Continuous
 62
     7
370
    25
100
AcDbLine
 10
72.8509549704
 20
-6.1342512661
 30
0.0
 11
72.8509549704
 21
-10.1842512661
 31
0.0
  0
LINE
  5
3D2
330
1F
100
AcDbEntity
  8
0
  6
Continuous
 62
     7
370
    25
100
AcDbLine
 10
77.1509549704
 20
-5.6342512661
 30
0.0
 11
73.3509549704
 21
-5.6342512661
 31
0.0
  0
LINE
  5
3D3
330
1F
100
AcDbEntity
  8
0
  6
Continuous
 62
     7
370
    25
100
AcDbLine
 10
77.3509549704
 20
-6.2342512661
 30
0.0
 11
77.3509549704
 21
-5.8342512661
 31
0.0
  0
LINE
  5
3D4
330
1F
100
AcDbEntity
  8
0
  6
Continuous
 62
     7
370
    25
100
AcDbLine
 10
78.3509549704
 20
-6.4342512661
 30
0.0
 11
77.5509549704
 21
-6.4342512661
 31
0.0
  0
LINE
  5
3D5
330
1F
100
AcDbEntity
  8
0
  6
Continuous
 62
     7
370
    25
100
AcDbLine
 10
78.8509549704
 20
-6.9342512661
 30
0.0
 11
78.8509549704
 21
-17.6342512661
 31
0.0
  0
LINE
  5
3D6
330
1F
100
AcDbEntity
  8
0
  6
Continuous
 62
     7
370
    25
100
AcDbLine
 10
77.3509549704
 20
-14.6342512661
 30
0.0
 11
77.3509549704
 21
-10.1342512661
 31
0.0
  0
LINE
  5
3D7
330
1F
100
AcDbEntity
  8
0
  6
Continuous
 62
     7
370
    25
100
AcDbLine
 10
74.3509549704
 20
-10.1342512661
 30
0.0
 11
74.3509549704
 21
-11.8842512661
 31
0.0
  0
LINE
  5
3D8
330
1F
100
AcDbEntity
  8
0
  6
Continuous
 62
     7
370
    25
100
AcDbLine
 10
73.8509549704
 20
-12.3842512661
 30
0.0
 11
73.3509549704
 21
-12.3842512661
 31
0.0
  0
LINE
  5
3D9
330
1F
100
AcDbEntity
  8
0
  6
Continuous
 62
     7
370
    25
100
AcDbLine
 10
70.6009549704
 20
-15.6342512661
 30
0.0
 11
70.6009549704
 21
-15.1342512661
 31
0.0
  0
LINE
  5
3DA
330
1F
100
AcDbEntity
  8
0
  6
Continuous
 62
     7
370
    25
100
AcDbLine
 10
68.3509549704
 20
-16.1342512661
 30
0.0
 11
70.1009549704
 21
-16.1342512661
 31
0.0
  0
LINE
  5
3DB
330
1F
100
AcDbEntity
  8
0
  6
Continuous
 62
     7
370
    25
100
AcDbLine
 10
72.8509549704
 20
-19.1342512661
 30
0.0
 11
68.3509549704
 21
-19.1342512661
 31
0.0
  0
LINE
  5
3DC
330
1F
100
AcDbEntity
  8
0
  6
Continuous
 62
     7
370
    25
100
AcDbLine
 10
73.3509549704
 20
-18.6342512661
 30
0.0
 11
73.3509549704
 21
-18.3455594107
 31
0.0
  0
LINE
  5
3DD
330
1F
100
AcDbEntity
  8
0
  6
Continuous
 62
     7
370
    25
100
AcDbLine
 10
72.8509549704
 20
57.8657487339
 30
0.0
 11
68.3509549704
 21
57.8657487339
 31
0.0
  0
LINE
  5
3DE
330
1F
100
AcDbEntity
  8
0
  6
Continuous
 62
     7
370
    25
100
AcDbLine
 10
68.3509549704
 20
54.8657487339
 30
0.0
 11
70.1009549704
 21
54.8657487339
 31
0.0
  0
LINE
  5
3DF
330
1F
100
AcDbEntity
  8
0
  6
Continuous
 62
     7
370
    25
100
AcDbLine
 10
70.6009549704
 20
54.3657487339
 30
0.0
 11
70.6009549704
 21
53.8657487339
 31
0.0
  0
LINE
  5
3E0
330
1F
100
AcDbEntity
  8
0
  6
Continuous
 62
     7
370
    25
100
AcDbLine
 10
73.8509549704
 20
51.1157487339
 30
0.0
 11
73.3509549704
 21
51.1157487339
 31
0.0
  0
LINE
  5
3E1
330
1F
100
AcDbEntity
  8
0
  6
Continuous
 62
     7
370
    25
100
AcDbLine
 10
74.3509549704
 20
48.8657487339
 30
0.0
 11
74.3509549704
 21
50.6157487339
 31
0.0
  0
LINE
  5
3E2
330
1F
100
AcDbEntity
  8
0
  6
Continuous
 62
     7
370
    25
100
AcDbLine
 10
77.3509549704
 20
53.3657487339
 30
0.0
 11
77.3509549704
 21
48.8657487339
 31
0.0
  0
LINE
  5
3E3
330
1F
100
AcDbEntity
  8
0
  6
Continuous
 62
     7
370
    25
100
AcDbLine
 10
76.8509549704
 20
53.8657487339
 30
0.0
 11
76.5622631151
 21
53.8657487339
 31
0.0
  0
LINE
  5
3E4
330
1F
100
AcDbEntity
  8
0
  6
Continuous
 62
     7
370
    25
100
AcDbLine
 10
24.0503295049
 20
1.6350330613
 30
0.0
 11
23.8714297816
 21
1.5572452477
 31
0.0
  0
LINE
  5
3E5
330
1F
100
AcDbEntity
  8
0
  6
Continuous
 62
     7
370
    25
100
AcDbLine
 10
24.3509549704
 20
2.0935630985
 30
0.0
 11
24.3509549704
 21
4.3657487339
 31
0.0
  0
LINE
  5
3E6
330
1F
100
AcDbEntity
  8
0
  6
Continuous
 62
     7
370
    25
100
AcDbLine
 10
21.578769335
 20
4.8657487339
 30
0.0
 11
23.8509549704
 21
4.8657487339
 31
0.0
  0
LINE
  5
3E7
330
1F
100
AcDbEntity
  8
0
  6
Continuous
 62
     7
370
    25
100
AcDbLine
 10
21.1202392978
 20
4.5651232684
 30
0.0
 11
21.0424514842
 21
4.3862235451
 31
0.0
  0
LINE
  5
3E8
330
1F
100
AcDbEntity
  8
0
  6
Continuous
 62
     7
370
    25
100
AcDbLine
 10
16.5816706431
 20
4.5651232684
 30
0.0
 11
16.6594584567
 21
4.3862235451
 31
0.0
  0
LINE
  5
3E9
330
1F
100
AcDbEntity
  8
0
  6
Continuous
 62
     7
370
    25
100
AcDbLine
 10
16.1231406059
 20
4.8657487339
 30
0.0
 11
13.8509549704
 21
4.8657487339
 31
0.0
  0
LINE
  5
3EA
330
1F
100
AcDbEntity
  8
0
  6
Continuous
 62
     7
370
    25
100
AcDbLine
 10
13.3509549704
 20
2.0935630985
 30
0.0
 11
13.3509549704
 21
4.3657487339
 31
0.0
  0
LINE
  5
3EB
330
1F
100
AcDbEntity
  8
0
  6
Continuous
 62
     7
370
    25
100
AcDbLine
 10
13.651580436
 20
1.6350330613
 30
0.0
 11
13.8304801593
 21
1.5572452477
 31
0.0
  0
LINE
  5
3EC
330
1F
100
AcDbEntity
  8
0
  6
Continuous
 62
     7
370
    25
100
AcDbLine
 10
13.651580436
 20
-2.9035355934
 30
0.0
 11
13.8304801593
 21
-2.8257477799
 31
0.0
  0
LINE
  5
3ED
330
1F
100
AcDbEntity
  8
0
  6
Continuous
 62
     7
370
    25
100
AcDbLine
 10
13.3509549704
 20
-3.3620656306
 30
0.0
 11
13.3509549704
 21
-5.6342512661
 31
0.0
  0
LINE
  5
3EE
330
1F
100
AcDbEntity
  8
0
  6
Continuous
 62
     7
370
    25
100
AcDbLine
 10
16.1231406059
 20
-6.1342512661
 30
0.0
 11
13.8509549704
 21
-6.1342512661
 31
0.0
  0
LINE
  5
3EF
330
1F
100
AcDbEntity
  8
0
  6
Continuous
 62
     7
370
    25
100
AcDbLine
 10
16.5816706431
 20
-5.8336258005
 30
0.0
 11
16.6594584567
 21
-5.6547260772
 31
0.0
  0
LINE
  5
3F0
330
1F
100
AcDbEntity
  8
0
  6
Continuous
 62
     7
370
    25
100
AcDbLine
 10
21.1202392978
 20
-5.8336258005
 30
0.0
 11
21.0424514842
 21
-5.6547260772
 31
0.0
  0
LINE
  5
3F1
330
1F
100
AcDbEntity
  8
0
  6
Continuous
 62
     7
370
    25
100
AcDbLine
 10
21.578769335
 20
-6.1342512661
 30
0.0
 11
23.8509549704
 21
-6.1342512661
 31
0.0
  0
LINE
  5
3F2
330
1F
100
AcDbEntity
  8
0
  6
Continuous
 62
     7
370
    25
100
AcDbLine
 10
24.3509549704
 20
-3.3620656306
 30
0.0
 11
24.3509549704
 21
-5.6342512661
 31
0.0
  0
LINE
  5
3F3
330
1F
100
AcDbEntity
  8
0
  6
Continuous
 62
     7
370
    25
100
AcDbLine
 10
24.0503295049
 20
-2.9035355934
 30
0.0
 11
23.8714297816
 21
-2.8257477799
 31
0.0
  0
LINE
  5
3F4
330
1F
100
AcDbEntity
  8
0
  6
Continuous
 62
     7
370
    25
100
AcDbLine
 10
0.3509549704
 20
53.3657487339
 30
0.0
 11
0.3509549704
 21
48.8657487339
 31
0.0
  0
LINE
  5
3F5
330
1F
100
AcDbEntity
  8
0
  6
Continuous
 62
     7
370
    25
100
AcDbLine
 10
3.3509549704
 20
48.8657487339
 30
0.0
 11
3.3509549704
 21
50.6157487339
 31
0.0
  0
LINE
  5
3F6
330
1F
100
AcDbEntity
  8
0
  6
Continuous
 62
     7
370
    25
100
AcDbLine
 10
3.8509549704
 20
51.1157487339
 30
0.0
 11
4.3509549704
 21
51.1157487339
 31
0.0
  0
LINE
  5
3F7
330
1F
100
AcDbEntity
  8
0
  6
Continuous
 62
     7
370
    25
100
AcDbLine
 10
7.1009549704
 20
54.3657487339
 30
0.0
 11
7.1009549704
 21
53.8657487339
 31
0.0
  0
LINE
  5
3F8
330
1F
100
AcDbEntity
  8
0
  6
Continuous
 62
     7
370
    25
100
AcDbLine
 10
9.3509549704
 20
54.8657487339
 30
0.0
 11
7.6009549704
 21
54.8657487339
 31
0.0
  0
LINE
  5
3F9
330
1F
100
AcDbEntity
  8
0
  6
Continuous
 62
     7
370
    25
100
AcDbLine
 10
4.8509549704
 20
57.8657487339
 30
0.0
 11
9.3509549704
 21
57.8657487339
 31
0.0
  0
LINE
  5
3FA
330
1F
100
AcDbEntity
  8
0
  6
Continuous
 62
     7
370
    25
100
AcDbLine
 10
4.3509549704
 20
57.3657487339
 30
0.0
 11
4.3509549704
 21
57.0770568786
 31
0.0
  0
LINE
  5
3FB
330
1F
100
AcDbEntity
  8
0
  6
Continuous
 62
     7
370
    25
100
AcDbLine
 10
0.8509549704
 20
53.8657487339
 30
0.0
 11
1.1396468258
 21
53.8657487339
 31
0.0
  0
LINE
  5
3FC
330
1F
100
AcDbEntity
  8
0
  6
Continuous
 62
     7
370
    25
100
AcDbLine
 10
21.1202392978
 20
34.1663741995
 30
0.0
 11
21.0424514842
 21
34.3452739228
 31
0.0
  0
LINE
  5
3FD
330
1F
100
AcDbEntity
  8
0
  6
Continuous
 62
     7
370
    25
100
AcDbLine
 10
21.578769335
 20
33.8657487339
 30
0.0
 11
23.8509549704
 21
33.8657487339
 31
0.0
  0
LINE
  5
3FE
330
1F
100
AcDbEntity
  8
0
  6
Continuous
 62
     7
370
    25
100
AcDbLine
 10
24.3509549704
 20
36.6379343694
 30
0.0
 11
24.3509549704
 21
34.3657487339
 31
0.0
  0
LINE
  5
3FF
330
1F
100
AcDbEntity
  8
0
  6
Continuous
 62
     7
370
    25
100
AcDbLine
 10
24.0503295049
 20
37.0964644066
 30
0.0
 11
23.8714297816
 21
37.1742522201
 31
0.0
  0
LINE
  5
400
330
1F
100
AcDbEntity
  8
0
  6
Continuous
 62
     7
370
    25
100
AcDbLine
 10
24.0503295049
 20
41.6350330613
 30
0.0
 11
23.8714297816
 21
41.5572452477
 31
0.0
  0
LINE
  5
401
330
1F
100
AcDbEntity
  8
0
  6
Continuous
 62
     7
370
    25
100
AcDbLine
 10
24.3509549704
 20
42.0935630985
 30
0.0
 11
24.3509549704
 21
44.3657487339
 31
0.0
  0
LINE
  5
402
330
1F
100
AcDbEntity
  8
0
  6
Continuous
 62
     7
370
    25
100
AcDbLine
 10
21.578769335
 20
44.8657487339
 30
0.0
 11
23.8509549704
 21
44.8657487339
 31
0.0
  0
LINE
  5
403
330
1F
100
AcDbEntity
  8
0
  6
Continuous
 62
     7
370
    25
100
AcDbLine
 10
21.1202392978
 20
44.5651232684
 30
0.0
 11
21.0424514842
 21
44.3862235451
 31
0.0
  0
LINE
  5
404
330
1F
100
AcDbEntity
  8
0
  6
Continuous
 62
     7
370
    25
100
AcDbLine
 10
16.5816706431
 20
44.5651232684
 30
0.0
 11
16.6594584567
 21
44.3862235451
 31
0.0
  0
LINE
  5
405
330
1F
100
AcDbEntity
  8
0
  6
Continuous
 62
     7
370
    25
100
AcDbLine
 10
16.1231406059
 20
44.8657487339
 30
0.0
 11
13.8509549704
 21
44.8657487339
 31
0.0
  0
LINE
  5
406
330
1F
100
AcDbEntity
  8
0
  6
Continuous
 62
     7
370
    25
100
AcDbLine
 10
13.3509549704
 20
42.0935630985
 30
0.0
 11
13.3509549704
 21
44.3657487339
 31
0.0
  0
LINE
  5
407
330
1F
100
AcDbEntity
  8
0
  6
Continuous
 62
     7
370
    25
100
AcDbLine
 10
13.651580436
 20
41.6350330613
 30
0.0
 11
13.8304801593
 21
41.5572452477
 31
0.0
  0
LINE
  5
408
330
1F
100
AcDbEntity
  8
0
  6
Continuous
 62
     7
370
    25
100
AcDbLine
 10
13.651580436
 20
37.0964644066
 30
0.0
 11
13.8304801593
 21
37.1742522201
 31
0.0
  0
LINE
  5
409
330
1F
100
AcDbEntity
  8
0
  6
Continuous
 62
     7
370
    25
100
AcDbLine
 10
13.3509549704
 20
36.6379343694
 30
0.0
 11
13.3509549704
 21
34.3657487339
 31
0.0
  0
LINE
  5
40A
330
1F
100
AcDbEntity
  8
0
  6
Continuous
 62
     7
370
    25
100
AcDbLine
 10
16.1231406059
 20
33.8657487339
 30
0.0
 11
13.8509549704
 21
33.8657487339
 31
0.0
  0
LINE
  5
40B
330
1F
100
AcDbEntity
  8
0
  6
Continuous
 62
     7
370
    25
100
AcDbLine
 10
16.5816706431
 20
34.1663741995
 30
0.0
 11
16.6594584567
 21
34.3452739228
 31
0.0
  0
LINE
  5
40C
330
1F
100
AcDbEntity
  8
0
  6
Continuous
 62
     7
370
    25
100
AcDbLine
 10
4.8509549704
 20
-19.1342512661
 30
0.0
 11
9.3509549704
 21
-19.1342512661
 31
0.0
  0
LINE
  5
40D
330
1F
100
AcDbEntity
  8
0
  6
Continuous
 62
     7
370
    25
100
AcDbLine
 10
9.3509549704
 20
-16.1342512661
 30
0.0
 11
7.6009549704
 21
-16.1342512661
 31
0.0
  0
LINE
  5
40E
330
1F
100
AcDbEntity
  8
0
  6
Continuous
 62
     7
370
    25
100
AcDbLine
 10
7.1009549704
 20
-15.6342512661
 30
0.0
 11
7.1009549704
 21
-15.1342512661
 31
0.0
  0
LINE
  5
40F
330
1F
100
AcDbEntity
  8
0
  6
Continuous
 62
     7
370
    25
100
AcDbLine
 10
3.8509549704
 20
-12.3842512661
 30
0.0
 11
4.3509549704
 21
-12.3842512661
 31
0.0
  0
LINE
  5
410
330
1F
100
AcDbEntity
  8
0
  6
Continuous
 62
     7
370
    25
100
AcDbLine
 10
3.3509549704
 20
-10.1342512661
 30
0.0
 11
3.3509549704
 21
-11.8842512661
 31
0.0
  0
LINE
  5
411
330
1F
100
AcDbEntity
  8
0
  6
Continuous
 62
     7
370
    25
100
AcDbLine
 10
0.3509549704
 20
-14.6342512661
 30
0.0
 11
0.3509549704
 21
-10.1342512661
 31
0.0
  0
LINE
  5
412
330
1F
100
AcDbEntity
  8
0
  6
Continuous
 62
     7
370
    25
100
AcDbLine
 10
0.8509549704
 20
-15.1342512661
 30
0.0
 11
1.1396468258
 21
-15.1342512661
 31
0.0
  0
LINE
  5
413
330
1F
100
AcDbEntity
  8
0
  6
Continuous
 62
     7
370
    25
100
AcDbLine
 10
4.3509549704
 20
-18.6342512661
 30
0.0
 11
4.3509549704
 21
-18.3455594107
 31
0.0
  0
LINE
  5
414
330
1F
100
AcDbEntity
  8
0
  6
Continuous
 62
     7
370
    25
100
AcDbLine
 10
64.3509549704
 20
42.0935630985
 30
0.0
 11
64.3509549704
 21
44.3657487339
 31
0.0
  0
LINE
  5
415
330
1F
100
AcDbEntity
  8
0
  6
Continuous
 62
     7
370
    25
100
AcDbLine
 10
61.578769335
 20
44.8657487339
 30
0.0
 11
63.8509549704
 21
44.8657487339
 31
0.0
  0
LINE
  5
416
330
1F
100
AcDbEntity
  8
0
  6
Continuous
 62
     7
370
    25
100
AcDbLine
 10
61.1202392978
 20
44.5651232684
 30
0.0
 11
61.0424514842
 21
44.3862235451
 31
0.0
  0
LINE
  5
417
330
1F
100
AcDbEntity
  8
0
  6
Continuous
 62
     7
370
    25
100
AcDbLine
 10
56.5816706431
 20
44.5651232684
 30
0.0
 11
56.6594584567
 21
44.3862235451
 31
0.0
  0
LINE
  5
418
330
1F
100
AcDbEntity
  8
0
  6
Continuous
 62
     7
370
    25
100
AcDbLine
 10
56.1231406059
 20
44.8657487339
 30
0.0
 11
53.8509549704
 21
44.8657487339
 31
0.0
  0
LINE
  5
419
330
1F
100
AcDbEntity
  8
0
  6
Continuous
 62
     7
370
    25
100
AcDbLine
 10
53.3509549704
 20
42.0935630985
 30
0.0
 11
53.3509549704
 21
44.3657487339
 31
0.0
  0
LINE
  5
41A
330
1F
100
AcDbEntity
  8
0
  6
Continuous
 62
     7
370
    25
100
AcDbLine
 10
53.651580436
 20
41.6350330613
 30
0.0
 11
53.8304801593
 21
41.5572452477
 31
0.0
  0
LINE
  5
41B
330
1F
100
AcDbEntity
  8
0
  6
Continuous
 62
     7
370
    25
100
AcDbLine
 10
53.651580436
 20
37.0964644066
 30
0.0
 11
53.8304801593
 21
37.1742522201
 31
0.0
  0
LINE
  5
41C
330
1F
100
AcDbEntity
  8
0
  6
Continuous
 62
     7
370
    25
100
AcDbLine
 10
53.3509549704
 20
36.6379343694
 30
0.0
 11
53.3509549704
 21
34.3657487339
 31
0.0
  0
LINE
  5
41D
330
1F
100
AcDbEntity
  8
0
  6
Continuous
 62
     7
370
    25
100
AcDbLine
 10
56.1231406059
 20
33.8657487339
 30
0.0
 11
53.8509549704
 21
33.8657487339
 31
0.0
  0
LINE
  5
41E
330
1F
100
AcDbEntity
  8
0
  6
Continuous
 62
     7
370
    25
100
AcDbLine
 10
56.5816706431
 20
34.1663741995
 30
0.0
 11
56.6594584567
 21
34.3452739228
 31
0.0
  0
LINE
  5
41F
330
1F
100
AcDbEntity
  8
0
  6
Continuous
 62
     7
370
    25
100
AcDbLine
 10
61.1202392978
 20
34.1663741995
 30
0.0
 11
61.0424514842
 21
34.3452739228
 31
0.0
  0
LINE
  5
420
330
1F
100
AcDbEntity
  8
0
  6
Continuous
 62
     7
370
    25
100
AcDbLine
 10
61.578769335
 20
33.8657487339
 30
0.0
 11
63.8509549704
 21
33.8657487339
 31
0.0
  0
LINE
  5
421
330
1F
100
AcDbEntity
  8
0
  6
Continuous
 62
     7
370
    25
100
AcDbLine
 10
64.3509549704
 20
36.6379343694
 30
0.0
 11
64.3509549704
 21
34.3657487339
 31
0.0
  0
LINE
  5
422
330
1F
100
AcDbEntity
  8
0
  6
Continuous
 62
     7
370
    25
100
AcDbLine
 10
64.0503295049
 20
37.0964644066
 30
0.0
 11
63.8714297816
 21
37.1742522201
 31
0.0
  0
LINE
  5
423
330
1F
100
AcDbEntity
  8
0
  6
Continuous
 62
     7
370
    25
100
AcDbLine
 10
61.578769335
 20
-6.1342512661
 30
0.0
 11
63.8509549704
 21
-6.1342512661
 31
0.0
  0
LINE
  5
424
330
1F
100
AcDbEntity
  8
0
  6
Continuous
 62
     7
370
    25
100
AcDbLine
 10
64.3509549704
 20
-3.3620656306
 30
0.0
 11
64.3509549704
 21
-5.6342512661
 31
0.0
  0
LINE
  5
425
330
1F
100
AcDbEntity
  8
0
  6
Continuous
 62
     7
370
    25
100
AcDbLine
 10
64.0503295049
 20
-2.9035355934
 30
0.0
 11
63.8714297816
 21
-2.8257477799
 31
0.0
  0
LINE
  5
426
330
1F
100
AcDbEntity
  8
0
  6
Continuous
 62
     7
370
    25
100
AcDbLine
 10
64.0503295049
 20
1.6350330613
 30
0.0
 11
63.8714297816
 21
1.5572452477
 31
0.0
  0
LINE
  5
427
330
1F
100
AcDbEntity
  8
0
  6
Continuous
 62
     7
370
    25
100
AcDbLine
 10
64.3509549704
 20
2.0935630985
 30
0.0
 11
64.3509549704
 21
4.3657487339
 31
0.0
  0
LINE
  5
428
330
1F
100
AcDbEntity
  8
0
  6
Continuous
 62
     7
370
    25
100
AcDbLine
 10
61.578769335
 20
4.8657487339
 30
0.0
 11
63.8509549704
 21
4.8657487339
 31
0.0
  0
LINE
  5
429
330
1F
100
AcDbEntity
  8
0
  6
Continuous
 62
     7
370
    25
100
AcDbLine
 10
61.1202392978
 20
4.5651232684
 30
0.0
 11
61.0424514842
 21
4.3862235451
 31
0.0
  0
LINE
  5
42A
330
1F
100
AcDbEntity
  8
0
  6
Continuous
 62
     7
370
    25
100
AcDbLine
 10
56.5816706431
 20
4.5651232684
 30
0.0
 11
56.6594584567
 21
4.3862235451
 31
0.0
  0
LINE
  5
42B
330
1F
100
AcDbEntity
  8
0
  6
Continuous
 62
     7
370
    25
100
AcDbLine
 10
56.1231406059
 20
4.8657487339
 30
0.0
 11
53.8509549704
 21
4.8657487339
 31
0.0
  0
LINE
  5
42C
330
1F
100
AcDbEntity
  8
0
  6
Continuous
 62
     7
370
    25
100
AcDbLine
 10
53.3509549704
 20
2.0935630985
 30
0.0
 11
53.3509549704
 21
4.3657487339
 31
0.0
  0
LINE
  5
42D
330
1F
100
AcDbEntity
  8
0
  6
Continuous
 62
     7
370
    25
100
AcDbLine
 10
53.651580436
 20
1.6350330613
 30
0.0
 11
53.8304801593
 21
1.5572452477
 31
0.0
  0
LINE
  5
42E
330
1F
100
AcDbEntity
  8
0
  6
Continuous
 62
     7
370
    25
100
AcDbLine
 10
53.651580436
 20
-2.9035355934
 30
0.0
 11
53.8304801593
 21
-2.8257477799
 31
0.0
  0
LINE
  5
42F
330
1F
100
AcDbEntity
  8
0
  6
Continuous
 62
     7
370
    25
100
AcDbLine
 10
53.3509549704
 20
-3.3620656306
 30
0.0
 11
53.3509549704
 21
-5.6342512661
 31
0.0
  0
LINE
  5
430
330
1F
100
AcDbEntity
  8
0
  6
Continuous
 62
     7
370
    25
100
AcDbLine
 10
56.1231406059
 20
-6.1342512661
 30
0.0
 11
53.8509549704
 21
-6.1342512661
 31
0.0
  0
LINE
  5
431
330
1F
100
AcDbEntity
  8
0
  6
Continuous
 62
     7
370
    25
100
AcDbLine
 10
56.5816706431
 20
-5.8336258005
 30
0.0
 11
56.6594584567
 21
-5.6547260772
 31
0.0
  0
LINE
  5
432
330
1F
100
AcDbEntity
  8
0
  6
Continuous
 62
     7
370
    25
100
AcDbLine
 10
57.8509549704
 20
6.8657487339
 30
0.0
 11
54.8459541889
 21
6.8657487339
 31
0.0
  0
LINE
  5
433
330
1F
100
AcDbEntity
  8
0
  6
Continuous
 62
     7
370
    25
100
AcDbLine
 10
58.6009549704
 20
6.5100863012
 30
0.0
 11
58.1009549704
 21
6.7987614358
 31
0.0
  0
LINE
  5
434
330
1F
100
AcDbEntity
  8
0
  6
Continuous
 62
     7
370
    25
100
AcDbLine
 10
59.1009549704
 20
6.5100863012
 30
0.0
 11
59.6009549704
 21
6.7987614358
 31
0.0
  0
LINE
  5
435
330
1F
100
AcDbEntity
  8
0
  6
Continuous
 62
     7
370
    25
100
AcDbLine
 10
64.7296346269
 20
6.8657487339
 30
0.0
 11
59.8509549704
 21
6.8657487339
 31
0.0
  0
LINE
  5
436
330
1F
100
AcDbEntity
  8
0
  6
Continuous
 62
     7
370
    25
100
AcDbLine
 10
65.0831880175
 20
7.0121953433
 30
0.0
 11
69.3402947987
 21
11.2693021245
 31
0.0
  0
LINE
  5
437
330
1F
100
AcDbEntity
  8
0
  6
Continuous
 62
     7
370
    25
100
AcDbLine
 10
69.6938481893
 20
11.4157487339
 30
0.0
 11
71.4366151422
 21
11.4157487339
 31
0.0
  0
LINE
  5
438
330
1F
100
AcDbEntity
  8
0
  6
Continuous
 62
     7
370
    25
100
AcDbLine
 10
71.4366151422
 20
11.4157487339
 30
0.0
 11
71.4310845347
 21
11.4307391141
 31
0.0
  0
LINE
  5
439
330
1F
100
AcDbEntity
  8
0
  6
Continuous
 62
     7
370
    25
100
AcDbLine
 10
75.3492591861
 20
11.4174502794
 30
0.0
 11
71.4310845347
 21
11.4307391141
 31
0.0
  0
LINE
  5
43A
330
1F
100
AcDbEntity
  8
0
  6
Continuous
 62
     7
370
    25
100
AcDbLine
 10
75.8509549704
 20
26.8140500642
 30
0.0
 11
75.8509549704
 21
11.9174474037
 31
0.0
  0
LINE
  5
43B
330
1F
100
AcDbEntity
  8
0
  6
Continuous
 62
     7
370
    25
100
AcDbLine
 10
75.3492591861
 20
27.3140471885
 30
0.0
 11
71.4310845347
 21
27.3007583538
 31
0.0
  0
LINE
  5
43C
330
1F
100
AcDbEntity
  8
0
  6
Continuous
 62
     7
370
    25
100
AcDbLine
 10
71.4366151422
 20
27.3157487339
 30
0.0
 11
71.4310845347
 21
27.3007583538
 31
0.0
  0
LINE
  5
43D
330
1F
100
AcDbEntity
  8
0
  6
Continuous
 62
     7
370
    25
100
AcDbLine
 10
69.6938481893
 20
27.3157487339
 30
0.0
 11
71.4366151422
 21
27.3157487339
 31
0.0
  0
LINE
  5
43E
330
1F
100
AcDbEntity
  8
0
  6
Continuous
 62
     7
370
    25
100
AcDbLine
 10
65.0831880175
 20
31.7193021245
 30
0.0
 11
69.3402947987
 21
27.4621953433
 31
0.0
  0
LINE
  5
43F
330
1F
100
AcDbEntity
  8
0
  6
Continuous
 62
     7
370
    25
100
AcDbLine
 10
64.7296346269
 20
31.8657487339
 30
0.0
 11
59.8509549704
 21
31.8657487339
 31
0.0
  0
LINE
  5
440
330
1F
100
AcDbEntity
  8
0
  6
Continuous
 62
     7
370
    25
100
AcDbLine
 10
59.1009549704
 20
32.2214111666
 30
0.0
 11
59.6009549704
 21
31.932736032
 31
0.0
  0
LINE
  5
441
330
1F
100
AcDbEntity
  8
0
  6
Continuous
 62
     7
370
    25
100
AcDbLine
 10
58.6009549704
 20
32.2214111666
 30
0.0
 11
58.1009549704
 21
31.932736032
 31
0.0
  0
LINE
  5
442
330
1F
100
AcDbEntity
  8
0
  6
Continuous
 62
     7
370
    25
100
AcDbLine
 10
54.8459541889
 20
31.8657487339
 30
0.0
 11
57.8509549704
 21
31.8657487339
 31
0.0
  0
LINE
  5
443
330
1F
100
AcDbEntity
  8
0
  6
Continuous
 62
     7
370
    25
100
AcDbLine
 10
19.1009549704
 20
32.2214111666
 30
0.0
 11
19.6009549704
 21
31.932736032
 31
0.0
  0
LINE
  5
444
330
1F
100
AcDbEntity
  8
0
  6
Continuous
 62
     7
370
    25
100
AcDbLine
 10
18.6009549704
 20
32.2214111666
 30
0.0
 11
18.1009549704
 21
31.932736032
 31
0.0
  0
LINE
  5
445
330
1F
100
AcDbEntity
  8
0
  6
Continuous
 62
     7
370
    25
100
AcDbLine
 10
12.972275314
 20
31.8657487339
 30
0.0
 11
17.8509549704
 21
31.8657487339
 31
0.0
  0
LINE
  5
446
330
1F
100
AcDbEntity
  8
0
  6
Continuous
 62
     7
370
    25
100
AcDbLine
 10
12.6187219234
 20
31.7193021245
 30
0.0
 11
8.3616151422
 21
27.4621953433
 31
0.0
  0
LINE
  5
447
330
1F
100
AcDbEntity
  8
0
  6
Continuous
 62
     7
370
    25
100
AcDbLine
 10
8.0080617516
 20
27.3157487339
 30
0.0
 11
6.2652947987
 21
27.3157487339
 31
0.0
  0
LINE
  5
448
330
1F
100
AcDbEntity
  8
0
  6
Continuous
 62
     7
370
    25
100
AcDbLine
 10
6.2652947987
 20
27.3157487339
 30
0.0
 11
6.2708254062
 21
27.3007583538
 31
0.0
  0
LINE
  5
449
330
1F
100
AcDbEntity
  8
0
  6
Continuous
 62
     7
370
    25
100
AcDbLine
 10
2.3526507548
 20
27.3140471885
 30
0.0
 11
6.2708254062
 21
27.3007583538
 31
0.0
  0
LINE
  5
44A
330
1F
100
AcDbEntity
  8
0
  6
Continuous
 62
     7
370
    25
100
AcDbLine
 10
1.8509549704
 20
11.9174474037
 30
0.0
 11
1.8509549704
 21
26.8140500642
 31
0.0
  0
LINE
  5
44B
330
1F
100
AcDbEntity
  8
0
  6
Continuous
 62
     7
370
    25
100
AcDbLine
 10
2.3526507548
 20
11.4174502794
 30
0.0
 11
6.2708254062
 21
11.4307391141
 31
0.0
  0
LINE
  5
44C
330
1F
100
AcDbEntity
  8
0
  6
Continuous
 62
     7
370
    25
100
AcDbLine
 10
6.2652947987
 20
11.4157487339
 30
0.0
 11
6.2708254062
 21
11.4307391141
 31
0.0
  0
LINE
  5
44D
330
1F
100
AcDbEntity
  8
0
  6
Continuous
 62
     7
370
    25
100
AcDbLine
 10
8.0080617516
 20
11.4157487339
 30
0.0
 11
6.2652947987
 21
11.4157487339
 31
0.0
  0
LINE
  5
44E
330
1F
100
AcDbEntity
  8
0
  6
Continuous
 62
     7
370
    25
100
AcDbLine
 10
12.6187219234
 20
7.0121953433
 30
0.0
 11
8.3616151422
 21
11.2693021245
 31
0.0
  0
LINE
  5
44F
330
1F
100
AcDbEntity
  8
0
  6
Continuous
 62
     7
370
    25
100
AcDbLine
 10
12.972275314
 20
6.8657487339
 30
0.0
 11
17.8509549704
 21
6.8657487339
 31
0.0
  0
LINE
  5
450
330
1F
100
AcDbEntity
  8
0
  6
Continuous
 62
     7
370
    25
100
AcDbLine
 10
18.6009549704
 20
6.5100863012
 30
0.0
 11
18.1009549704
 21
6.7987614358
 31
0.0
  0
LINE
  5
451
330
1F
100
AcDbEntity
  8
0
  6
Continuous
 62
     7
370
    25
100
AcDbLine
 10
19.1009549704
 20
6.5100863012
 30
0.0
 11
19.6009549704
 21
6.7987614358
 31
0.0
  0
LINE
  5
452
330
1F
100
AcDbEntity
  8
0
  6
Continuous
 62
     7
370
    25
100
AcDbLine
 10
22.8559557519
 20
6.8657487339
 30
0.0
 11
19.8509549704
 21
6.8657487339
 31
0.0
  0
LINE
  5
453
330
1F
100
AcDbEntity
  8
0
  6
Continuous
 62
     7
370
    25
100
AcDbLine
 10
19.8509549704
 20
31.8657487339
 30
0.0
 11
22.8559557519
 21
31.8657487339
 31
0.0
  0
ARC
  5
454
330
1F
100
AcDbEntity
  8
0
  6
Continuous
 62
     7
370
    25
100
AcDbCircle
 10
19.8509549704
 20
32.3657487339
 30
0.0
 40
0.4999999999998813
100
AcDbArc
 50
240.0
 51
270.0
  0
ARC
  5
455
330
1F
100
AcDbEntity
  8
0
  6
Continuous
 62
     7
370
    25
100
AcDbCircle
 10
38.8509549704
 20
19.3657487339
 30
0.0
 40
18.7
100
AcDbArc
 50
54.284819993
 51
125.715180007
  0
ARC
  5
456
330
1F
100
AcDbEntity
  8
0
  6
Continuous
 62
     7
370
    25
100
AcDbCircle
 10
25.8509549704
 20
0.3657487339
 30
0.0
 40
0.5000000000000359
100
AcDbArc
 50
330.0
 51
0.0
  0
ARC
  5
457
330
1F
100
AcDbEntity
  8
0
  6
Continuous
 62
     7
370
    25
100
AcDbCircle
 10
24.0708043161
 20
1.0987152105
 30
0.0
 40
0.4999999999998054
100
AcDbArc
 50
113.5
 51
198.3659340076
  0
ARC
  5
458
330
1F
100
AcDbEntity
  8
0
  6
Continuous
 62
     7
370
    25
100
AcDbCircle
 10
0.8509549704
 20
53.3657487339
 30
0.0
 40
0.5
100
AcDbArc
 50
90.0
 51
180.0
  0
ARC
  5
459
330
1F
100
AcDbEntity
  8
0
  6
Continuous
 62
     7
370
    25
100
AcDbCircle
 10
20.583921447
 20
34.1458993883
 30
0.0
 40
0.4999999999999866
100
AcDbArc
 50
23.5
 51
108.3659340075
  0
ARC
  5
45A
330
1F
100
AcDbEntity
  8
0
  6
Continuous
 62
     7
370
    25
100
AcDbCircle
 10
4.8509549704
 20
-18.6342512661
 30
0.0
 40
0.5000000000000071
100
AcDbArc
 50
180.0
 51
270.0
  0
ARC
  5
45B
330
1F
100
AcDbEntity
  8
0
  6
Continuous
 62
     7
370
    25
100
AcDbCircle
 10
38.8509549704
 20
19.3657487339
 30
0.0
 40
18.70000000000002
100
AcDbArc
 50
324.284819993
 51
35.715180007
  0
ARC
  5
45C
330
1F
100
AcDbEntity
  8
0
  6
Continuous
 62
     7
370
    25
100
AcDbCircle
 10
50.3509549704
 20
35.3607479524
 30
0.0
 40
1.000000000000016
100
AcDbArc
 50
234.284819993
 51
0.0
  0
ARC
  5
45D
330
1F
100
AcDbEntity
  8
0
  6
Continuous
 62
     7
370
    25
100
AcDbCircle
 10
51.8509549704
 20
38.3657487339
 30
0.0
 40
0.4999999999999504
100
AcDbArc
 50
150.0
 51
180.0
  0
ARC
  5
45E
330
1F
100
AcDbEntity
  8
0
  6
Continuous
 62
     7
370
    25
100
AcDbCircle
 10
51.2736047013
 20
39.3657487339
 30
0.0
 40
0.4999999999999435
100
AcDbArc
 50
330.0
 51
30.0
  0
ARC
  5
45F
330
1F
100
AcDbEntity
  8
0
  6
Continuous
 62
     7
370
    25
100
AcDbCircle
 10
51.8509549704
 20
40.3657487339
 30
0.0
 40
0.4999999999997927
100
AcDbArc
 50
180.0
 51
210.0
  0
ARC
  5
460
330
1F
100
AcDbEntity
  8
0
  6
Continuous
 62
     7
370
    25
100
AcDbCircle
 10
50.8509549704
 20
45.2444283904
 30
0.0
 40
0.5000000000000593
100
AcDbArc
 50
0.0
 51
45.0
  0
ARC
  5
461
330
1F
100
AcDbEntity
  8
0
  6
Continuous
 62
     7
370
    25
100
AcDbCircle
 10
47.3009549704
 20
50.2086419527
 30
0.0
 40
0.4999999999999437
100
AcDbArc
 50
180.0
 51
225.0
  0
ARC
  5
462
330
1F
100
AcDbEntity
  8
0
  6
Continuous
 62
     7
370
    25
100
AcDbCircle
 10
46.2992563007
 20
55.8657487339
 30
0.0
 40
0.5000000000000071
100
AcDbArc
 50
359.8056770587
 51
90.0
  0
ARC
  5
463
330
1F
100
AcDbEntity
  8
0
  6
Continuous
 62
     7
370
    25
100
AcDbCircle
 10
31.4026536402
 20
55.8657487339
 30
0.0
 40
0.5000000000000115
100
AcDbArc
 50
90.0
 51
180.1943229413
  0
ARC
  5
464
330
1F
100
AcDbEntity
  8
0
  6
Continuous
 62
     7
370
    25
100
AcDbCircle
 10
30.4009549704
 20
50.2086419527
 30
0.0
 40
0.499999999999989
100
AcDbArc
 50
315.0
 51
0.0
  0
ARC
  5
465
330
1F
100
AcDbEntity
  8
0
  6
Continuous
 62
     7
370
    25
100
AcDbCircle
 10
26.8509549704
 20
45.2444283904
 30
0.0
 40
0.4999999999999689
100
AcDbArc
 50
135.0
 51
180.0
  0
ARC
  5
466
330
1F
100
AcDbEntity
  8
0
  6
Continuous
 62
     7
370
    25
100
AcDbCircle
 10
25.8509549704
 20
40.3657487339
 30
0.0
 40
0.5000000000000512
100
AcDbArc
 50
330.0
 51
360.0
  0
ARC
  5
467
330
1F
100
AcDbEntity
  8
0
  6
Continuous
 62
     7
370
    25
100
AcDbCircle
 10
26.4283052396
 20
39.3657487339
 30
0.0
 40
0.5000000000000512
100
AcDbArc
 50
150.0
 51
210.0
  0
ARC
  5
468
330
1F
100
AcDbEntity
  8
0
  6
Continuous
 62
     7
370
    25
100
AcDbCircle
 10
25.8509549704
 20
38.3657487339
 30
0.0
 40
0.4999999999999447
100
AcDbArc
 50
0.0
 51
30.0
  0
ARC
  5
469
330
1F
100
AcDbEntity
  8
0
  6
Continuous
 62
     7
370
    25
100
AcDbCircle
 10
27.3509549704
 20
35.3607479524
 30
0.0
 40
1.000000000000014
100
AcDbArc
 50
180.0
 51
305.715180007
  0
ARC
  5
46A
330
1F
100
AcDbEntity
  8
0
  6
Continuous
 62
     7
370
    25
100
AcDbCircle
 10
26.4283052396
 20
-0.6342512661
 30
0.0
 40
0.4999999999998719
100
AcDbArc
 50
150.0
 51
210.0
  0
ARC
  5
46B
330
1F
100
AcDbEntity
  8
0
  6
Continuous
 62
     7
370
    25
100
AcDbCircle
 10
25.8509549704
 20
-1.6342512661
 30
0.0
 40
0.5000000000000182
100
AcDbArc
 50
0.0
 51
30.0
  0
ARC
  5
46C
330
1F
100
AcDbEntity
  8
0
  6
Continuous
 62
     7
370
    25
100
AcDbCircle
 10
26.8509549704
 20
-6.5129309225
 30
0.0
 40
0.499999999999833
100
AcDbArc
 50
180.0
 51
225.0
  0
ARC
  5
46D
330
1F
100
AcDbEntity
  8
0
  6
Continuous
 62
     7
370
    25
100
AcDbCircle
 10
30.4009549704
 20
-11.4771444849
 30
0.0
 40
0.4999999999998797
100
AcDbArc
 50
360.0
 51
45.0
  0
ARC
  5
46E
330
1F
100
AcDbEntity
  8
0
  6
Continuous
 62
     7
370
    25
100
AcDbCircle
 10
31.4026536402
 20
-17.1342512661
 30
0.0
 40
0.5000000000000399
100
AcDbArc
 50
179.8056770587
 51
270.0
  0
ARC
  5
46F
330
1F
100
AcDbEntity
  8
0
  6
Continuous
 62
     7
370
    25
100
AcDbCircle
 10
46.2992563007
 20
-17.1342512661
 30
0.0
 40
0.4999999999999858
100
AcDbArc
 50
270.0
 51
0.1943229413
  0
ARC
  5
470
330
1F
100
AcDbEntity
  8
0
  6
Continuous
 62
     7
370
    25
100
AcDbCircle
 10
47.3009549704
 20
-11.4771444849
 30
0.0
 40
0.5000000000000153
100
AcDbArc
 50
135.0
 51
180.0
  0
ARC
  5
471
330
1F
100
AcDbEntity
  8
0
  6
Continuous
 62
     7
370
    25
100
AcDbCircle
 10
50.8509549704
 20
-6.5129309225
 30
0.0
 40
0.4999999999999318
100
AcDbArc
 50
315.0
 51
0.0
  0
ARC
  5
472
330
1F
100
AcDbEntity
  8
0
  6
Continuous
 62
     7
370
    25
100
AcDbCircle
 10
51.8509549704
 20
-1.6342512661
 30
0.0
 40
0.500000000000071
100
AcDbArc
 50
150.0
 51
180.0
  0
ARC
  5
473
330
1F
100
AcDbEntity
  8
0
  6
Continuous
 62
     7
370
    25
100
AcDbCircle
 10
51.2736047013
 20
-0.6342512661
 30
0.0
 40
0.5000000000000169
100
AcDbArc
 50
330.0
 51
30.0
  0
ARC
  5
474
330
1F
100
AcDbEntity
  8
0
  6
Continuous
 62
     7
370
    25
100
AcDbCircle
 10
51.8509549704
 20
0.3657487339
 30
0.0
 40
0.4999999999997958
100
AcDbArc
 50
180.0
 51
210.0
  0
ARC
  5
475
330
1F
100
AcDbEntity
  8
0
  6
Continuous
 62
     7
370
    25
100
AcDbCircle
 10
50.3509549704
 20
3.3707495154
 30
0.0
 40
1.000000000000002
100
AcDbArc
 50
0.0
 51
125.715180007
  0
ARC
  5
476
330
1F
100
AcDbEntity
  8
0
  6
Continuous
 62
     7
370
    25
100
AcDbCircle
 10
38.8509549704
 20
19.3657487339
 30
0.0
 40
18.70000000000006
100
AcDbArc
 50
234.284819993
 51
305.715180007
  0
ARC
  5
477
330
1F
100
AcDbEntity
  8
0
  6
Continuous
 62
     7
370
    25
100
AcDbCircle
 10
27.3509549704
 20
3.3707495154
 30
0.0
 40
1.000000000000007
100
AcDbArc
 50
54.284819993
 51
180.0
  0
ARC
  5
478
330
1F
100
AcDbEntity
  8
0
  6
Continuous
 62
     7
370
    25
100
AcDbCircle
 10
65.1509549704
 20
-20.1342512661
 30
0.0
 40
0.4999999999999858
100
AcDbArc
 50
180.0
 51
270.0
  0
ARC
  5
479
330
1F
100
AcDbEntity
  8
0
  6
Continuous
 62
     7
370
    25
100
AcDbCircle
 10
64.4509549704
 20
-19.3342512661
 30
0.0
 40
0.1999999999999744
100
AcDbArc
 50
360.0
 51
90.0
  0
ARC
  5
47A
330
1F
100
AcDbEntity
  8
0
  6
Continuous
 62
     7
370
    25
100
AcDbCircle
 10
64.0509549704
 20
-18.9342512661
 30
0.0
 40
0.2000000000000099
100
AcDbArc
 50
180.0
 51
270.0
  0
ARC
  5
47B
330
1F
100
AcDbEntity
  8
0
  6
Continuous
 62
     7
370
    25
100
AcDbCircle
 10
64.3509549704
 20
-15.1342512661
 30
0.0
 40
0.4999999999999947
100
AcDbArc
 50
90.0
 51
180.0
  0
ARC
  5
47C
330
1F
100
AcDbEntity
  8
0
  6
Continuous
 62
     7
370
    25
100
AcDbCircle
 10
68.4009549704
 20
-14.1342512661
 30
0.0
 40
0.4999999999999893
100
AcDbArc
 50
270.0
 51
0.0
  0
ARC
  5
47D
330
1F
100
AcDbEntity
  8
0
  6
Continuous
 62
     7
370
    25
100
AcDbCircle
 10
68.4009549704
 20
-12.3055716096
 30
0.0
 40
0.5000000000000593
100
AcDbArc
 50
0.0
 51
45.0
  0
ARC
  5
47E
330
1F
100
AcDbEntity
  8
0
  6
Continuous
 62
     7
370
    25
100
AcDbCircle
 10
64.7296346269
 20
-8.6342512661
 30
0.0
 40
0.5000000000001865
100
AcDbArc
 50
45.0
 51
90.0
  0
ARC
  5
47F
330
1F
100
AcDbEntity
  8
0
  6
Continuous
 62
     7
370
    25
100
AcDbCircle
 10
59.8509549704
 20
-7.6342512661
 30
0.0
 40
0.5000000000001235
100
AcDbArc
 50
240.0
 51
270.0
  0
ARC
  5
480
330
1F
100
AcDbEntity
  8
0
  6
Continuous
 62
     7
370
    25
100
AcDbCircle
 10
58.8509549704
 20
-8.2116015353
 30
0.0
 40
0.4999999999999902
100
AcDbArc
 50
60.0
 51
120.0
  0
ARC
  5
481
330
1F
100
AcDbEntity
  8
0
  6
Continuous
 62
     7
370
    25
100
AcDbCircle
 10
57.8509549704
 20
-7.6342512661
 30
0.0
 40
0.5000000000001061
100
AcDbArc
 50
270.0
 51
300.0
  0
ARC
  5
482
330
1F
100
AcDbEntity
  8
0
  6
Continuous
 62
     7
370
    25
100
AcDbCircle
 10
52.972275314
 20
-8.6342512661
 30
0.0
 40
0.5000000000000551
100
AcDbArc
 50
90.0
 51
135.0
  0
ARC
  5
483
330
1F
100
AcDbEntity
  8
0
  6
Continuous
 62
     7
370
    25
100
AcDbCircle
 10
49.3009549704
 20
-12.3055716096
 30
0.0
 40
0.5000000000000426
100
AcDbArc
 50
135.0
 51
180.0
  0
ARC
  5
484
330
1F
100
AcDbEntity
  8
0
  6
Continuous
 62
     7
370
    25
100
AcDbCircle
 10
49.3009549704
 20
-14.1342512661
 30
0.0
 40
0.5000000000000213
100
AcDbArc
 50
180.0
 51
270.0
  0
ARC
  5
485
330
1F
100
AcDbEntity
  8
0
  6
Continuous
 62
     7
370
    25
100
AcDbCircle
 10
53.3509549704
 20
-15.1342512661
 30
0.0
 40
0.5000000000000036
100
AcDbArc
 50
0.0
 51
90.0
  0
ARC
  5
486
330
1F
100
AcDbEntity
  8
0
  6
Continuous
 62
     7
370
    25
100
AcDbCircle
 10
53.6509549704
 20
-18.9342512661
 30
0.0
 40
0.2000000000000242
100
AcDbArc
 50
270.0
 51
360.0
  0
ARC
  5
487
330
1F
100
AcDbEntity
  8
0
  6
Continuous
 62
     7
370
    25
100
AcDbCircle
 10
53.2509549704
 20
-19.3342512661
 30
0.0
 40
0.1999999999999673
100
AcDbArc
 50
90.0
 51
180.0
  0
ARC
  5
488
330
1F
100
AcDbEntity
  8
0
  6
Continuous
 62
     7
370
    25
100
AcDbCircle
 10
52.5509549704
 20
-20.1342512661
 30
0.0
 40
0.5
100
AcDbArc
 50
270.0
 51
0.0
  0
ARC
  5
489
330
1F
100
AcDbEntity
  8
0
  6
Continuous
 62
     7
370
    25
100
AcDbCircle
 10
45.4609549704
 20
-20.1342512661
 30
0.0
 40
0.5
100
AcDbArc
 50
180.0
 51
270.0
  0
ARC
  5
48A
330
1F
100
AcDbEntity
  8
0
  6
Continuous
 62
     7
370
    25
100
AcDbCircle
 10
44.7609549704
 20
-19.8342512661
 30
0.0
 40
0.2000000000000099
100
AcDbArc
 50
0.0
 51
90.0
  0
ARC
  5
48B
330
1F
100
AcDbEntity
  8
0
  6
Continuous
 62
     7
370
    25
100
AcDbCircle
 10
32.9409549704
 20
-19.8342512661
 30
0.0
 40
0.2000000000000099
100
AcDbArc
 50
90.0
 51
180.0
  0
ARC
  5
48C
330
1F
100
AcDbEntity
  8
0
  6
Continuous
 62
     7
370
    25
100
AcDbCircle
 10
32.2409549704
 20
-20.1342512661
 30
0.0
 40
0.4999999999999929
100
AcDbArc
 50
270.0
 51
0.0
  0
ARC
  5
48D
330
1F
100
AcDbEntity
  8
0
  6
Continuous
 62
     7
370
    25
100
AcDbCircle
 10
25.1509549704
 20
-20.1342512661
 30
0.0
 40
0.4999999999999929
100
AcDbArc
 50
180.0
 51
270.0
  0
ARC
  5
48E
330
1F
100
AcDbEntity
  8
0
  6
Continuous
 62
     7
370
    25
100
AcDbCircle
 10
24.4509549704
 20
-19.3342512661
 30
0.0
 40
0.1999999999999424
100
AcDbArc
 50
360.0
 51
90.0
  0
ARC
  5
48F
330
1F
100
AcDbEntity
  8
0
  6
Continuous
 62
     7
370
    25
100
AcDbCircle
 10
24.0509549704
 20
-18.9342512661
 30
0.0
 40
0.1999999999999922
100
AcDbArc
 50
180.0
 51
270.0
  0
ARC
  5
490
330
1F
100
AcDbEntity
  8
0
  6
Continuous
 62
     7
370
    25
100
AcDbCircle
 10
24.3509549704
 20
-15.1342512661
 30
0.0
 40
0.5000000000000178
100
AcDbArc
 50
90.0
 51
180.0
  0
ARC
  5
491
330
1F
100
AcDbEntity
  8
0
  6
Continuous
 62
     7
370
    25
100
AcDbCircle
 10
28.4009549704
 20
-14.1342512661
 30
0.0
 40
0.5
100
AcDbArc
 50
270.0
 51
0.0
  0
ARC
  5
492
330
1F
100
AcDbEntity
  8
0
  6
Continuous
 62
     7
370
    25
100
AcDbCircle
 10
28.4009549704
 20
-12.3055716096
 30
0.0
 40
0.500000000000004
100
AcDbArc
 50
0.0
 51
45.0
  0
ARC
  5
493
330
1F
100
AcDbEntity
  8
0
  6
Continuous
 62
     7
370
    25
100
AcDbCircle
 10
24.7296346269
 20
-8.6342512661
 30
0.0
 40
0.4999999999999254
100
AcDbArc
 50
45.0
 51
90.0
  0
ARC
  5
494
330
1F
100
AcDbEntity
  8
0
  6
Continuous
 62
     7
370
    25
100
AcDbCircle
 10
19.8509549704
 20
-7.6342512661
 30
0.0
 40
0.500000000000397
100
AcDbArc
 50
240.0
 51
270.0
  0
ARC
  5
495
330
1F
100
AcDbEntity
  8
0
  6
Continuous
 62
     7
370
    25
100
AcDbCircle
 10
18.8509549704
 20
-8.2116015353
 30
0.0
 40
0.50000000000002
100
AcDbArc
 50
60.0
 51
120.0
  0
ARC
  5
496
330
1F
100
AcDbEntity
  8
0
  6
Continuous
 62
     7
370
    25
100
AcDbCircle
 10
17.8509549704
 20
-7.6342512661
 30
0.0
 40
0.5000000000000865
100
AcDbArc
 50
270.0
 51
300.0
  0
ARC
  5
497
330
1F
100
AcDbEntity
  8
0
  6
Continuous
 62
     7
370
    25
100
AcDbCircle
 10
12.972275314
 20
-8.6342512661
 30
0.0
 40
0.4999999999998608
100
AcDbArc
 50
90.0
 51
135.0
  0
ARC
  5
498
330
1F
100
AcDbEntity
  8
0
  6
Continuous
 62
     7
370
    25
100
AcDbCircle
 10
9.3009549704
 20
-12.3055716096
 30
0.0
 40
0.4999999999998508
100
AcDbArc
 50
135.0
 51
180.0
  0
ARC
  5
499
330
1F
100
AcDbEntity
  8
0
  6
Continuous
 62
     7
370
    25
100
AcDbCircle
 10
9.3009549704
 20
-14.1342512661
 30
0.0
 40
0.5000000000000053
100
AcDbArc
 50
180.0
 51
270.0
  0
ARC
  5
49A
330
1F
100
AcDbEntity
  8
0
  6
Continuous
 62
     7
370
    25
100
AcDbCircle
 10
13.3509549704
 20
-15.1342512661
 30
0.0
 40
0.5000000000000071
100
AcDbArc
 50
0.0
 51
90.0
  0
ARC
  5
49B
330
1F
100
AcDbEntity
  8
0
  6
Continuous
 62
     7
370
    25
100
AcDbCircle
 10
13.6509549704
 20
-18.9342512661
 30
0.0
 40
0.1999999999999673
100
AcDbArc
 50
270.0
 51
0.0
  0
ARC
  5
49C
330
1F
100
AcDbEntity
  8
0
  6
Continuous
 62
     7
370
    25
100
AcDbCircle
 10
13.2509549704
 20
-19.3342512661
 30
0.0
 40
0.199999999999978
100
AcDbArc
 50
90.0
 51
180.0
  0
ARC
  5
49D
330
1F
100
AcDbEntity
  8
0
  6
Continuous
 62
     7
370
    25
100
AcDbCircle
 10
12.5509549704
 20
-20.1342512661
 30
0.0
 40
0.4999999999999858
100
AcDbArc
 50
270.0
 51
0.0
  0
ARC
  5
49E
330
1F
100
AcDbEntity
  8
0
  6
Continuous
 62
     7
370
    25
100
AcDbCircle
 10
1.8509549704
 20
-17.6342512661
 30
0.0
 40
3.000000000000004
100
AcDbArc
 50
180.0
 51
270.0
  0
ARC
  5
49F
330
1F
100
AcDbEntity
  8
0
  6
Continuous
 62
     7
370
    25
100
AcDbCircle
 10
-0.6490450296
 20
-6.9342512661
 30
0.0
 40
0.4999999999999725
100
AcDbArc
 50
90.0
 51
180.0
  0
ARC
  5
4A0
330
1F
100
AcDbEntity
  8
0
  6
Continuous
 62
     7
370
    25
100
AcDbCircle
 10
0.1509549704
 20
-6.2342512661
 30
0.0
 40
0.1999999999999774
100
AcDbArc
 50
270.0
 51
0.0
  0
ARC
  5
4A1
330
1F
100
AcDbEntity
  8
0
  6
Continuous
 62
     7
370
    25
100
AcDbCircle
 10
0.5509549704
 20
-5.8342512661
 30
0.0
 40
0.1999999999999899
100
AcDbArc
 50
90.0
 51
180.0
  0
ARC
  5
4A2
330
1F
100
AcDbEntity
  8
0
  6
Continuous
 62
     7
370
    25
100
AcDbCircle
 10
4.3509549704
 20
-6.1342512661
 30
0.0
 40
0.5000000000000266
100
AcDbArc
 50
0.0
 51
90.0
  0
ARC
  5
4A3
330
1F
100
AcDbEntity
  8
0
  6
Continuous
 62
     7
370
    25
100
AcDbCircle
 10
5.3509549704
 20
-10.1842512661
 30
0.0
 40
0.4999999999999858
100
AcDbArc
 50
180.0
 51
270.0
  0
ARC
  5
4A4
330
1F
100
AcDbEntity
  8
0
  6
Continuous
 62
     7
370
    25
100
AcDbCircle
 10
7.1796346269
 20
-10.1842512661
 30
0.0
 40
0.5000000000000995
100
AcDbArc
 50
270.0
 51
315.0
  0
ARC
  5
4A5
330
1F
100
AcDbEntity
  8
0
  6
Continuous
 62
     7
370
    25
100
AcDbCircle
 10
10.8509549704
 20
-6.5129309225
 30
0.0
 40
0.4999999999999645
100
AcDbArc
 50
315.0
 51
0.0
  0
ARC
  5
4A6
330
1F
100
AcDbEntity
  8
0
  6
Continuous
 62
     7
370
    25
100
AcDbCircle
 10
11.8509549704
 20
-1.6342512661
 30
0.0
 40
0.4999999999999805
100
AcDbArc
 50
150.0
 51
180.0
  0
ARC
  5
4A7
330
1F
100
AcDbEntity
  8
0
  6
Continuous
 62
     7
370
    25
100
AcDbCircle
 10
11.2736047013
 20
-0.6342512661
 30
0.0
 40
0.4999999999999738
100
AcDbArc
 50
330.0
 51
30.0
  0
ARC
  5
4A8
330
1F
100
AcDbEntity
  8
0
  6
Continuous
 62
     7
370
    25
100
AcDbCircle
 10
11.8509549704
 20
0.3657487339
 30
0.0
 40
0.4999999999998472
100
AcDbArc
 50
180.0
 51
210.0
  0
ARC
  5
4A9
330
1F
100
AcDbEntity
  8
0
  6
Continuous
 62
     7
370
    25
100
AcDbCircle
 10
10.8509549704
 20
5.2444283904
 30
0.0
 40
0.4999999999998899
100
AcDbArc
 50
360.0
 51
45.0
  0
ARC
  5
4AA
330
1F
100
AcDbEntity
  8
0
  6
Continuous
 62
     7
370
    25
100
AcDbCircle
 10
7.1796346269
 20
8.9157487339
 30
0.0
 40
0.5000000000000857
100
AcDbArc
 50
45.0
 51
90.0
  0
ARC
  5
4AB
330
1F
100
AcDbEntity
  8
0
  6
Continuous
 62
     7
370
    25
100
AcDbCircle
 10
5.3509549704
 20
8.9157487339
 30
0.0
 40
0.5000000000000107
100
AcDbArc
 50
90.0
 51
180.0
  0
ARC
  5
4AC
330
1F
100
AcDbEntity
  8
0
  6
Continuous
 62
     7
370
    25
100
AcDbCircle
 10
4.3509549704
 20
4.8657487339
 30
0.0
 40
0.5000000000000195
100
AcDbArc
 50
270.0
 51
360.0
  0
ARC
  5
4AD
330
1F
100
AcDbEntity
  8
0
  6
Continuous
 62
     7
370
    25
100
AcDbCircle
 10
0.5509549704
 20
4.5657487339
 30
0.0
 40
0.1999999999999975
100
AcDbArc
 50
180.0
 51
270.0
  0
ARC
  5
4AE
330
1F
100
AcDbEntity
  8
0
  6
Continuous
 62
     7
370
    25
100
AcDbCircle
 10
0.1509549704
 20
4.9657487339
 30
0.0
 40
0.1999999999999504
100
AcDbArc
 50
360.0
 51
90.0
  0
ARC
  5
4AF
330
1F
100
AcDbEntity
  8
0
  6
Continuous
 62
     7
370
    25
100
AcDbCircle
 10
-0.6490450296
 20
5.6657487339
 30
0.0
 40
0.4999999999999815
100
AcDbArc
 50
180.0
 51
270.0
  0
ARC
  5
4B0
330
1F
100
AcDbEntity
  8
0
  6
Continuous
 62
     7
370
    25
100
AcDbCircle
 10
-0.6490450296
 20
12.7557487339
 30
0.0
 40
0.4999999999999756
100
AcDbArc
 50
90.0
 51
180.0
  0
ARC
  5
4B1
330
1F
100
AcDbEntity
  8
0
  6
Continuous
 62
     7
370
    25
100
AcDbCircle
 10
-0.3490450296
 20
13.4557487339
 30
0.0
 40
0.2000000000000259
100
AcDbArc
 50
270.0
 51
360.0
  0
ARC
  5
4B2
330
1F
100
AcDbEntity
  8
0
  6
Continuous
 62
     7
370
    25
100
AcDbCircle
 10
-0.3490450296
 20
25.2757487339
 30
0.0
 40
0.2000000000000135
100
AcDbArc
 50
0.0
 51
90.0
  0
ARC
  5
4B3
330
1F
100
AcDbEntity
  8
0
  6
Continuous
 62
     7
370
    25
100
AcDbCircle
 10
-0.6490450296
 20
25.9757487339
 30
0.0
 40
0.5
100
AcDbArc
 50
180.0
 51
270.0
  0
ARC
  5
4B4
330
1F
100
AcDbEntity
  8
0
  6
Continuous
 62
     7
370
    25
100
AcDbCircle
 10
-0.6490450296
 20
33.0657487339
 30
0.0
 40
0.4999999999999738
100
AcDbArc
 50
90.0
 51
180.0
  0
ARC
  5
4B5
330
1F
100
AcDbEntity
  8
0
  6
Continuous
 62
     7
370
    25
100
AcDbCircle
 10
0.1509549704
 20
33.7657487339
 30
0.0
 40
0.1999999999999744
100
AcDbArc
 50
270.0
 51
0.0
  0
ARC
  5
4B6
330
1F
100
AcDbEntity
  8
0
  6
Continuous
 62
     7
370
    25
100
AcDbCircle
 10
0.5509549704
 20
34.1657487339
 30
0.0
 40
0.1999999999999815
100
AcDbArc
 50
90.0
 51
180.0
  0
ARC
  5
4B7
330
1F
100
AcDbEntity
  8
0
  6
Continuous
 62
     7
370
    25
100
AcDbCircle
 10
4.3509549704
 20
33.8657487339
 30
0.0
 40
0.5
100
AcDbArc
 50
0.0
 51
90.0
  0
ARC
  5
4B8
330
1F
100
AcDbEntity
  8
0
  6
Continuous
 62
     7
370
    25
100
AcDbCircle
 10
5.3509549704
 20
29.8157487339
 30
0.0
 40
0.5
100
AcDbArc
 50
180.0
 51
270.0
  0
ARC
  5
4B9
330
1F
100
AcDbEntity
  8
0
  6
Continuous
 62
     7
370
    25
100
AcDbCircle
 10
7.1796346269
 20
29.8157487339
 30
0.0
 40
0.4999999999999469
100
AcDbArc
 50
270.0
 51
315.0
  0
ARC
  5
4BA
330
1F
100
AcDbEntity
  8
0
  6
Continuous
 62
     7
370
    25
100
AcDbCircle
 10
10.8509549704
 20
33.4870690775
 30
0.0
 40
0.4999999999999638
100
AcDbArc
 50
315.0
 51
0.0
  0
ARC
  5
4BB
330
1F
100
AcDbEntity
  8
0
  6
Continuous
 62
     7
370
    25
100
AcDbCircle
 10
11.8509549704
 20
38.3657487339
 30
0.0
 40
0.5000000000001119
100
AcDbArc
 50
150.0
 51
180.0
  0
ARC
  5
4BC
330
1F
100
AcDbEntity
  8
0
  6
Continuous
 62
     7
370
    25
100
AcDbCircle
 10
11.2736047013
 20
39.3657487339
 30
0.0
 40
0.4999999999999646
100
AcDbArc
 50
330.0
 51
30.0
  0
ARC
  5
4BD
330
1F
100
AcDbEntity
  8
0
  6
Continuous
 62
     7
370
    25
100
AcDbCircle
 10
11.8509549704
 20
40.3657487339
 30
0.0
 40
0.4999999999999902
100
AcDbArc
 50
180.0
 51
210.0
  0
ARC
  5
4BE
330
1F
100
AcDbEntity
  8
0
  6
Continuous
 62
     7
370
    25
100
AcDbCircle
 10
10.8509549704
 20
45.2444283904
 30
0.0
 40
0.4999999999999609
100
AcDbArc
 50
0.0
 51
45.0
  0
ARC
  5
4BF
330
1F
100
AcDbEntity
  8
0
  6
Continuous
 62
     7
370
    25
100
AcDbCircle
 10
7.1796346269
 20
48.9157487339
 30
0.0
 40
0.4999999999999929
100
AcDbArc
 50
45.0
 51
90.0
  0
ARC
  5
4C0
330
1F
100
AcDbEntity
  8
0
  6
Continuous
 62
     7
370
    25
100
AcDbCircle
 10
5.3509549704
 20
48.9157487339
 30
0.0
 40
0.5000000000000027
100
AcDbArc
 50
90.0
 51
180.0
  0
ARC
  5
4C1
330
1F
100
AcDbEntity
  8
0
  6
Continuous
 62
     7
370
    25
100
AcDbCircle
 10
4.3509549704
 20
44.8657487339
 30
0.0
 40
0.5000000000000142
100
AcDbArc
 50
270.0
 51
0.0
  0
ARC
  5
4C2
330
1F
100
AcDbEntity
  8
0
  6
Continuous
 62
     7
370
    25
100
AcDbCircle
 10
0.5509549704
 20
44.5657487339
 30
0.0
 40
0.2000000000000099
100
AcDbArc
 50
180.0
 51
270.0
  0
ARC
  5
4C3
330
1F
100
AcDbEntity
  8
0
  6
Continuous
 62
     7
370
    25
100
AcDbCircle
 10
0.1509549704
 20
44.9657487339
 30
0.0
 40
0.1999999999999898
100
AcDbArc
 50
360.0
 51
90.0
  0
ARC
  5
4C4
330
1F
100
AcDbEntity
  8
0
  6
Continuous
 62
     7
370
    25
100
AcDbCircle
 10
-0.6490450296
 20
45.6657487339
 30
0.0
 40
0.5000000000000142
100
AcDbArc
 50
180.0
 51
270.0
  0
ARC
  5
4C5
330
1F
100
AcDbEntity
  8
0
  6
Continuous
 62
     7
370
    25
100
AcDbCircle
 10
1.8509549704
 20
56.3657487339
 30
0.0
 40
2.999999999999993
100
AcDbArc
 50
90.0
 51
180.0
  0
ARC
  5
4C6
330
1F
100
AcDbEntity
  8
0
  6
Continuous
 62
     7
370
    25
100
AcDbCircle
 10
12.5509549704
 20
58.8657487339
 30
0.0
 40
0.4999999999999805
100
AcDbArc
 50
360.0
 51
90.0
  0
ARC
  5
4C7
330
1F
100
AcDbEntity
  8
0
  6
Continuous
 62
     7
370
    25
100
AcDbCircle
 10
13.2509549704
 20
58.0657487339
 30
0.0
 40
0.1999999999999726
100
AcDbArc
 50
180.0
 51
270.0
  0
ARC
  5
4C8
330
1F
100
AcDbEntity
  8
0
  6
Continuous
 62
     7
370
    25
100
AcDbCircle
 10
13.6509549704
 20
57.6657487339
 30
0.0
 40
0.2000000000000099
100
AcDbArc
 50
0.0
 51
90.0
  0
ARC
  5
4C9
330
1F
100
AcDbEntity
  8
0
  6
Continuous
 62
     7
370
    25
100
AcDbCircle
 10
13.3509549704
 20
53.8657487339
 30
0.0
 40
0.5
100
AcDbArc
 50
270.0
 51
0.0
  0
ARC
  5
4CA
330
1F
100
AcDbEntity
  8
0
  6
Continuous
 62
     7
370
    25
100
AcDbCircle
 10
9.3009549704
 20
52.8657487339
 30
0.0
 40
0.4999999999999929
100
AcDbArc
 50
90.0
 51
180.0
  0
ARC
  5
4CB
330
1F
100
AcDbEntity
  8
0
  6
Continuous
 62
     7
370
    25
100
AcDbCircle
 10
9.3009549704
 20
51.0370690775
 30
0.0
 40
0.4999999999999525
100
AcDbArc
 50
180.0
 51
225.0
  0
ARC
  5
4CC
330
1F
100
AcDbEntity
  8
0
  6
Continuous
 62
     7
370
    25
100
AcDbCircle
 10
12.972275314
 20
47.3657487339
 30
0.0
 40
0.4999999999999374
100
AcDbArc
 50
225.0
 51
270.0
  0
ARC
  5
4CD
330
1F
100
AcDbEntity
  8
0
  6
Continuous
 62
     7
370
    25
100
AcDbCircle
 10
17.8509549704
 20
46.3657487339
 30
0.0
 40
0.5000000000001492
100
AcDbArc
 50
60.0
 51
90.0
  0
ARC
  5
4CE
330
1F
100
AcDbEntity
  8
0
  6
Continuous
 62
     7
370
    25
100
AcDbCircle
 10
18.8509549704
 20
46.9430990031
 30
0.0
 40
0.5000000000000068
100
AcDbArc
 50
240.0
 51
300.0
  0
ARC
  5
4CF
330
1F
100
AcDbEntity
  8
0
  6
Continuous
 62
     7
370
    25
100
AcDbCircle
 10
19.8509549704
 20
46.3657487339
 30
0.0
 40
0.4999999999997725
100
AcDbArc
 50
90.0
 51
120.0
  0
ARC
  5
4D0
330
1F
100
AcDbEntity
  8
0
  6
Continuous
 62
     7
370
    25
100
AcDbCircle
 10
24.7296346269
 20
47.3657487339
 30
0.0
 40
0.4999999999999432
100
AcDbArc
 50
270.0
 51
315.0
  0
ARC
  5
4D1
330
1F
100
AcDbEntity
  8
0
  6
Continuous
 62
     7
370
    25
100
AcDbCircle
 10
28.4009549704
 20
51.0370690775
 30
0.0
 40
0.5000000000000178
100
AcDbArc
 50
315.0
 51
0.0
  0
ARC
  5
4D2
330
1F
100
AcDbEntity
  8
0
  6
Continuous
 62
     7
370
    25
100
AcDbCircle
 10
28.4009549704
 20
52.8657487339
 30
0.0
 40
0.5000000000000142
100
AcDbArc
 50
0.0
 51
90.0
  0
ARC
  5
4D3
330
1F
100
AcDbEntity
  8
0
  6
Continuous
 62
     7
370
    25
100
AcDbCircle
 10
24.3509549704
 20
53.8657487339
 30
0.0
 40
0.5000000000000142
100
AcDbArc
 50
180.0
 51
270.0
  0
ARC
  5
4D4
330
1F
100
AcDbEntity
  8
0
  6
Continuous
 62
     7
370
    25
100
AcDbCircle
 10
24.0509549704
 20
57.6657487339
 30
0.0
 40
0.2000000000000028
100
AcDbArc
 50
90.0
 51
180.0
  0
ARC
  5
4D5
330
1F
100
AcDbEntity
  8
0
  6
Continuous
 62
     7
370
    25
100
AcDbCircle
 10
24.4509549704
 20
58.0657487339
 30
0.0
 40
0.1999999999999638
100
AcDbArc
 50
270.0
 51
0.0
  0
ARC
  5
4D6
330
1F
100
AcDbEntity
  8
0
  6
Continuous
 62
     7
370
    25
100
AcDbCircle
 10
25.1509549704
 20
58.8657487339
 30
0.0
 40
0.4999999999999822
100
AcDbArc
 50
90.0
 51
180.0
  0
ARC
  5
4D7
330
1F
100
AcDbEntity
  8
0
  6
Continuous
 62
     7
370
    25
100
AcDbCircle
 10
32.2409549704
 20
58.8657487339
 30
0.0
 40
0.5000000000000071
100
AcDbArc
 50
0.0
 51
90.0
  0
ARC
  5
4D8
330
1F
100
AcDbEntity
  8
0
  6
Continuous
 62
     7
370
    25
100
AcDbCircle
 10
32.9409549704
 20
58.5657487339
 30
0.0
 40
0.1999999999999815
100
AcDbArc
 50
180.0
 51
270.0
  0
ARC
  5
4D9
330
1F
100
AcDbEntity
  8
0
  6
Continuous
 62
     7
370
    25
100
AcDbCircle
 10
44.7609549704
 20
58.5657487339
 30
0.0
 40
0.1999999999999815
100
AcDbArc
 50
270.0
 51
0.0
  0
ARC
  5
4DA
330
1F
100
AcDbEntity
  8
0
  6
Continuous
 62
     7
370
    25
100
AcDbCircle
 10
45.4609549704
 20
58.8657487339
 30
0.0
 40
0.5
100
AcDbArc
 50
90.0
 51
180.0
  0
ARC
  5
4DB
330
1F
100
AcDbEntity
  8
0
  6
Continuous
 62
     7
370
    25
100
AcDbCircle
 10
52.5509549704
 20
58.8657487339
 30
0.0
 40
0.4999999999999858
100
AcDbArc
 50
360.0
 51
90.0
  0
ARC
  5
4DC
330
1F
100
AcDbEntity
  8
0
  6
Continuous
 62
     7
370
    25
100
AcDbCircle
 10
53.2509549704
 20
58.0657487339
 30
0.0
 40
0.199999999999946
100
AcDbArc
 50
180.0
 51
270.0
  0
ARC
  5
4DD
330
1F
100
AcDbEntity
  8
0
  6
Continuous
 62
     7
370
    25
100
AcDbCircle
 10
53.6509549704
 20
57.6657487339
 30
0.0
 40
0.2000000000000028
100
AcDbArc
 50
0.0
 51
90.0
  0
ARC
  5
4DE
330
1F
100
AcDbEntity
  8
0
  6
Continuous
 62
     7
370
    25
100
AcDbCircle
 10
53.3509549704
 20
53.8657487339
 30
0.0
 40
0.4999999999999929
100
AcDbArc
 50
270.0
 51
0.0
  0
ARC
  5
4DF
330
1F
100
AcDbEntity
  8
0
  6
Continuous
 62
     7
370
    25
100
AcDbCircle
 10
49.3009549704
 20
52.8657487339
 30
0.0
 40
0.5000000000000142
100
AcDbArc
 50
90.0
 51
180.0
  0
ARC
  5
4E0
330
1F
100
AcDbEntity
  8
0
  6
Continuous
 62
     7
370
    25
100
AcDbCircle
 10
49.3009549704
 20
51.0370690775
 30
0.0
 40
0.4999999999999147
100
AcDbArc
 50
180.0
 51
225.0
  0
ARC
  5
4E1
330
1F
100
AcDbEntity
  8
0
  6
Continuous
 62
     7
370
    25
100
AcDbCircle
 10
52.972275314
 20
47.3657487339
 30
0.0
 40
0.4999999999999588
100
AcDbArc
 50
225.0
 51
270.0
  0
ARC
  5
4E2
330
1F
100
AcDbEntity
  8
0
  6
Continuous
 62
     7
370
    25
100
AcDbCircle
 10
57.8509549704
 20
46.3657487339
 30
0.0
 40
0.499999999999805
100
AcDbArc
 50
60.0
 51
90.0
  0
ARC
  5
4E3
330
1F
100
AcDbEntity
  8
0
  6
Continuous
 62
     7
370
    25
100
AcDbCircle
 10
58.8509549704
 20
46.9430990031
 30
0.0
 40
0.4999999999999539
100
AcDbArc
 50
240.0
 51
300.0
  0
ARC
  5
4E4
330
1F
100
AcDbEntity
  8
0
  6
Continuous
 62
     7
370
    25
100
AcDbCircle
 10
59.8509549704
 20
46.3657487339
 30
0.0
 40
0.500000000000188
100
AcDbArc
 50
90.0
 51
120.0
  0
ARC
  5
4E5
330
1F
100
AcDbEntity
  8
0
  6
Continuous
 62
     7
370
    25
100
AcDbCircle
 10
64.7296346269
 20
47.3657487339
 30
0.0
 40
0.500000000000009
100
AcDbArc
 50
270.0
 51
315.0
  0
ARC
  5
4E6
330
1F
100
AcDbEntity
  8
0
  6
Continuous
 62
     7
370
    25
100
AcDbCircle
 10
68.4009549704
 20
51.0370690775
 30
0.0
 40
0.5000000000001563
100
AcDbArc
 50
315.0
 51
360.0
  0
ARC
  5
4E7
330
1F
100
AcDbEntity
  8
0
  6
Continuous
 62
     7
370
    25
100
AcDbCircle
 10
68.4009549704
 20
52.8657487339
 30
0.0
 40
0.4999999999999858
100
AcDbArc
 50
0.0
 51
90.0
  0
ARC
  5
4E8
330
1F
100
AcDbEntity
  8
0
  6
Continuous
 62
     7
370
    25
100
AcDbCircle
 10
64.3509549704
 20
53.8657487339
 30
0.0
 40
0.4999999999999929
100
AcDbArc
 50
180.0
 51
270.0
  0
ARC
  5
4E9
330
1F
100
AcDbEntity
  8
0
  6
Continuous
 62
     7
370
    25
100
AcDbCircle
 10
64.0509549704
 20
57.6657487339
 30
0.0
 40
0.2000000000000028
100
AcDbArc
 50
90.0
 51
180.0
  0
ARC
  5
4EA
330
1F
100
AcDbEntity
  8
0
  6
Continuous
 62
     7
370
    25
100
AcDbCircle
 10
64.4509549704
 20
58.0657487339
 30
0.0
 40
0.1999999999999886
100
AcDbArc
 50
270.0
 51
0.0
  0
ARC
  5
4EB
330
1F
100
AcDbEntity
  8
0
  6
Continuous
 62
     7
370
    25
100
AcDbCircle
 10
65.1509549704
 20
58.8657487339
 30
0.0
 40
0.5
100
AcDbArc
 50
90.0
 51
180.0
  0
ARC
  5
4EC
330
1F
100
AcDbEntity
  8
0
  6
Continuous
 62
     7
370
    25
100
AcDbCircle
 10
75.8509549704
 20
56.3657487339
 30
0.0
 40
3.000000000000014
100
AcDbArc
 50
0.0
 51
90.0
  0
ARC
  5
4ED
330
1F
100
AcDbEntity
  8
0
  6
Continuous
 62
     7
370
    25
100
AcDbCircle
 10
78.3509549704
 20
45.6657487339
 30
0.0
 40
0.5000000000007958
100
AcDbArc
 50
269.9999999995
 51
0.0000000002
  0
ARC
  5
4EE
330
1F
100
AcDbEntity
  8
0
  6
Continuous
 62
     7
370
    25
100
AcDbCircle
 10
77.5509549704
 20
44.9657487339
 30
0.0
 40
0.2000000000000171
100
AcDbArc
 50
90.0
 51
180.0
  0
ARC
  5
4EF
330
1F
100
AcDbEntity
  8
0
  6
Continuous
 62
     7
370
    25
100
AcDbCircle
 10
77.1509549704
 20
44.5657487339
 30
0.0
 40
0.1999999999999744
100
AcDbArc
 50
270.0
 51
360.0
  0
ARC
  5
4F0
330
1F
100
AcDbEntity
  8
0
  6
Continuous
 62
     7
370
    25
100
AcDbCircle
 10
73.3509549704
 20
44.8657487339
 30
0.0
 40
0.5000000000000142
100
AcDbArc
 50
180.0
 51
270.0
  0
ARC
  5
4F1
330
1F
100
AcDbEntity
  8
0
  6
Continuous
 62
     7
370
    25
100
AcDbCircle
 10
72.3509549704
 20
48.9157487339
 30
0.0
 40
0.5000000000000142
100
AcDbArc
 50
0.0000000001
 51
90.0
  0
ARC
  5
4F2
330
1F
100
AcDbEntity
  8
0
  6
Continuous
 62
     7
370
    25
100
AcDbCircle
 10
70.522275314
 20
48.9157487339
 30
0.0
 40
0.5000000000001598
100
AcDbArc
 50
90.0000000002
 51
135.0
  0
ARC
  5
4F3
330
1F
100
AcDbEntity
  8
0
  6
Continuous
 62
     7
370
    25
100
AcDbCircle
 10
66.8509549704
 20
45.2444283904
 30
0.0
 40
0.5
100
AcDbArc
 50
135.0000000001
 51
180.0
  0
ARC
  5
4F4
330
1F
100
AcDbEntity
  8
0
  6
Continuous
 62
     7
370
    25
100
AcDbCircle
 10
65.8509549704
 20
40.3657487339
 30
0.0
 40
0.4999999999997158
100
AcDbArc
 50
330.0
 51
0.0
  0
ARC
  5
4F5
330
1F
100
AcDbEntity
  8
0
  6
Continuous
 62
     7
370
    25
100
AcDbCircle
 10
66.4283052396
 20
39.3657487339
 30
0.0
 40
0.500000000000414
100
AcDbArc
 50
150.0000000003
 51
210.0000000001
  0
ARC
  5
4F6
330
1F
100
AcDbEntity
  8
0
  6
Continuous
 62
     7
370
    25
100
AcDbCircle
 10
65.8509549704
 20
38.3657487339
 30
0.0
 40
0.5000000000001421
100
AcDbArc
 50
0.0
 51
30.0000000001
  0
ARC
  5
4F7
330
1F
100
AcDbEntity
  8
0
  6
Continuous
 62
     7
370
    25
100
AcDbCircle
 10
66.8509549704
 20
33.4870690775
 30
0.0
 40
0.4999999999998483
100
AcDbArc
 50
180.0000000002
 51
225.0
  0
ARC
  5
4F8
330
1F
100
AcDbEntity
  8
0
  6
Continuous
 62
     7
370
    25
100
AcDbCircle
 10
70.522275314
 20
29.8157487339
 30
0.0
 40
0.4999999999999538
100
AcDbArc
 50
225.0
 51
270.0
  0
ARC
  5
4F9
330
1F
100
AcDbEntity
  8
0
  6
Continuous
 62
     7
370
    25
100
AcDbCircle
 10
72.3509549704
 20
29.8157487339
 30
0.0
 40
0.5000000000000853
100
AcDbArc
 50
270.0
 51
360.0
  0
ARC
  5
4FA
330
1F
100
AcDbEntity
  8
0
  6
Continuous
 62
     7
370
    25
100
AcDbCircle
 10
73.3509549704
 20
33.8657487339
 30
0.0
 40
0.4999999999999858
100
AcDbArc
 50
90.0
 51
180.0
  0
ARC
  5
4FB
330
1F
100
AcDbEntity
  8
0
  6
Continuous
 62
     7
370
    25
100
AcDbCircle
 10
77.1509549704
 20
34.1657487339
 30
0.0
 40
0.2000000000000668
100
AcDbArc
 50
0.0
 51
90.0
  0
ARC
  5
4FC
330
1F
100
AcDbEntity
  8
0
  6
Continuous
 62
     7
370
    25
100
AcDbCircle
 10
77.5509549704
 20
33.7657487339
 30
0.0
 40
0.2000000000000171
100
AcDbArc
 50
180.0
 51
270.0
  0
ARC
  5
4FD
330
1F
100
AcDbEntity
  8
0
  6
Continuous
 62
     7
370
    25
100
AcDbCircle
 10
78.3509549704
 20
33.0657487339
 30
0.0
 40
0.4999999999999858
100
AcDbArc
 50
360.0
 51
90.0
  0
ARC
  5
4FE
330
1F
100
AcDbEntity
  8
0
  6
Continuous
 62
     7
370
    25
100
AcDbCircle
 10
78.3509549704
 20
25.9757487339
 30
0.0
 40
0.4999999999999893
100
AcDbArc
 50
270.0
 51
0.0
  0
ARC
  5
4FF
330
1F
100
AcDbEntity
  8
0
  6
Continuous
 62
     7
370
    25
100
AcDbCircle
 10
78.0509549704
 20
25.2757487339
 30
0.0
 40
0.2000000000000313
100
AcDbArc
 50
90.0
 51
180.0
  0
ARC
  5
500
330
1F
100
AcDbEntity
  8
0
  6
Continuous
 62
     7
370
    25
100
AcDbCircle
 10
78.0509549704
 20
13.4557487339
 30
0.0
 40
0.2000000000000171
100
AcDbArc
 50
180.0
 51
270.0
  0
ARC
  5
501
330
1F
100
AcDbEntity
  8
0
  6
Continuous
 62
     7
370
    25
100
AcDbCircle
 10
78.3509549704
 20
12.7557487339
 30
0.0
 40
0.4999999999999876
100
AcDbArc
 50
0.0
 51
90.0
  0
ARC
  5
502
330
1F
100
AcDbEntity
  8
0
  6
Continuous
 62
     7
370
    25
100
AcDbCircle
 10
78.3509549704
 20
5.6657487339
 30
0.0
 40
0.4999999999999289
100
AcDbArc
 50
270.0
 51
0.0
  0
ARC
  5
503
330
1F
100
AcDbEntity
  8
0
  6
Continuous
 62
     7
370
    25
100
AcDbCircle
 10
77.5509549704
 20
4.9657487339
 30
0.0
 40
0.2000000000000313
100
AcDbArc
 50
90.0
 51
180.0
  0
ARC
  5
504
330
1F
100
AcDbEntity
  8
0
  6
Continuous
 62
     7
370
    25
100
AcDbCircle
 10
77.1509549704
 20
4.5657487339
 30
0.0
 40
0.1999999999999602
100
AcDbArc
 50
270.0
 51
0.0
  0
ARC
  5
505
330
1F
100
AcDbEntity
  8
0
  6
Continuous
 62
     7
370
    25
100
AcDbCircle
 10
73.3509549704
 20
4.8657487339
 30
0.0
 40
0.4999999999999858
100
AcDbArc
 50
180.0
 51
270.0
  0
ARC
  5
506
330
1F
100
AcDbEntity
  8
0
  6
Continuous
 62
     7
370
    25
100
AcDbCircle
 10
72.3509549704
 20
8.9157487339
 30
0.0
 40
0.5000000000000568
100
AcDbArc
 50
0.0
 51
90.0
  0
ARC
  5
507
330
1F
100
AcDbEntity
  8
0
  6
Continuous
 62
     7
370
    25
100
AcDbCircle
 10
70.522275314
 20
8.9157487339
 30
0.0
 40
0.5000000000000517
100
AcDbArc
 50
90.0
 51
135.0
  0
ARC
  5
508
330
1F
100
AcDbEntity
  8
0
  6
Continuous
 62
     7
370
    25
100
AcDbCircle
 10
66.8509549704
 20
5.2444283904
 30
0.0
 40
0.499999999999989
100
AcDbArc
 50
135.0
 51
180.0
  0
ARC
  5
509
330
1F
100
AcDbEntity
  8
0
  6
Continuous
 62
     7
370
    25
100
AcDbCircle
 10
65.8509549704
 20
0.3657487339
 30
0.0
 40
0.5000000000001847
100
AcDbArc
 50
330.0
 51
360.0
  0
ARC
  5
50A
330
1F
100
AcDbEntity
  8
0
  6
Continuous
 62
     7
370
    25
100
AcDbCircle
 10
66.4283052396
 20
-0.6342512661
 30
0.0
 40
0.5000000000000204
100
AcDbArc
 50
150.0
 51
210.0
  0
ARC
  5
50B
330
1F
100
AcDbEntity
  8
0
  6
Continuous
 62
     7
370
    25
100
AcDbCircle
 10
65.8509549704
 20
-1.6342512661
 30
0.0
 40
0.4999999999998863
100
AcDbArc
 50
360.0
 51
30.0
  0
ARC
  5
50C
330
1F
100
AcDbEntity
  8
0
  6
Continuous
 62
     7
370
    25
100
AcDbCircle
 10
66.8509549704
 20
-6.5129309225
 30
0.0
 40
0.4999999999999432
100
AcDbArc
 50
180.0
 51
225.0
  0
ARC
  5
50D
330
1F
100
AcDbEntity
  8
0
  6
Continuous
 62
     7
370
    25
100
AcDbCircle
 10
70.522275314
 20
-10.1842512661
 30
0.0
 40
0.500000000000038
100
AcDbArc
 50
225.0
 51
270.0
  0
ARC
  5
50E
330
1F
100
AcDbEntity
  8
0
  6
Continuous
 62
     7
370
    25
100
AcDbCircle
 10
72.3509549704
 20
-10.1842512661
 30
0.0
 40
0.4999999999999591
100
AcDbArc
 50
270.0
 51
0.0
  0
ARC
  5
50F
330
1F
100
AcDbEntity
  8
0
  6
Continuous
 62
     7
370
    25
100
AcDbCircle
 10
73.3509549704
 20
-6.1342512661
 30
0.0
 40
0.5000000000000142
100
AcDbArc
 50
90.0
 51
180.0
  0
ARC
  5
510
330
1F
100
AcDbEntity
  8
0
  6
Continuous
 62
     7
370
    25
100
AcDbCircle
 10
77.1509549704
 20
-5.8342512661
 30
0.0
 40
0.2000000000000313
100
AcDbArc
 50
360.0
 51
90.0
  0
ARC
  5
511
330
1F
100
AcDbEntity
  8
0
  6
Continuous
 62
     7
370
    25
100
AcDbCircle
 10
77.5509549704
 20
-6.2342512661
 30
0.0
 40
0.2000000000000028
100
AcDbArc
 50
180.0
 51
270.0
  0
ARC
  5
512
330
1F
100
AcDbEntity
  8
0
  6
Continuous
 62
     7
370
    25
100
AcDbCircle
 10
78.3509549704
 20
-6.9342512661
 30
0.0
 40
0.4999999999999716
100
AcDbArc
 50
360.0
 51
90.0
  0
ARC
  5
513
330
1F
100
AcDbEntity
  8
0
  6
Continuous
 62
     7
370
    25
100
AcDbCircle
 10
75.8509549704
 20
-17.6342512661
 30
0.0
 40
2.999999999999986
100
AcDbArc
 50
270.0
 51
0.0
  0
ARC
  5
514
330
1F
100
AcDbEntity
  8
0
  6
Continuous
 62
     7
370
    25
100
AcDbCircle
 10
76.8509549704
 20
-14.6342512661
 30
0.0
 40
0.5000000000000018
100
AcDbArc
 50
270.0
 51
0.0
  0
ARC
  5
515
330
1F
100
AcDbEntity
  8
0
  6
Continuous
 62
     7
370
    25
100
AcDbCircle
 10
75.8509549704
 20
-10.1342512661
 30
0.0
 40
1.5
100
AcDbArc
 50
0.0
 51
180.0
  0
ARC
  5
516
330
1F
100
AcDbEntity
  8
0
  6
Continuous
 62
     7
370
    25
100
AcDbCircle
 10
73.8509549704
 20
-11.8842512661
 30
0.0
 40
0.5000000000000586
100
AcDbArc
 50
270.0
 51
360.0
  0
ARC
  5
517
330
1F
100
AcDbEntity
  8
0
  6
Continuous
 62
     7
370
    25
100
AcDbCircle
 10
73.3509549704
 20
-15.1342512661
 30
0.0
 40
2.750000000000005
100
AcDbArc
 50
90.0
 51
180.0
  0
ARC
  5
518
330
1F
100
AcDbEntity
  8
0
  6
Continuous
 62
     7
370
    25
100
AcDbCircle
 10
70.1009549704
 20
-15.6342512661
 30
0.0
 40
0.5000000000000302
100
AcDbArc
 50
270.0
 51
360.0
  0
ARC
  5
519
330
1F
100
AcDbEntity
  8
0
  6
Continuous
 62
     7
370
    25
100
AcDbCircle
 10
68.3509549704
 20
-17.6342512661
 30
0.0
 40
1.5
100
AcDbArc
 50
90.0
 51
270.0
  0
ARC
  5
51A
330
1F
100
AcDbEntity
  8
0
  6
Continuous
 62
     7
370
    25
100
AcDbCircle
 10
72.8509549704
 20
-18.6342512661
 30
0.0
 40
0.5
100
AcDbArc
 50
270.0
 51
0.0
  0
ARC
  5
51B
330
1F
100
AcDbEntity
  8
0
  6
Continuous
 62
     7
370
    25
100
AcDbCircle
 10
73.8509549704
 20
-18.3455594107
 30
0.0
 40
0.5000000000000142
100
AcDbArc
 50
98.8498830984
 51
180.0
  0
ARC
  5
51C
330
1F
100
AcDbEntity
  8
0
  6
Continuous
 62
     7
370
    25
100
AcDbCircle
 10
73.3509549704
 20
-15.1342512661
 30
0.0
 40
2.750000000000096
100
AcDbArc
 50
278.8498830984
 51
351.1501169016
  0
ARC
  5
51D
330
1F
100
AcDbEntity
  8
0
  6
Continuous
 62
     7
370
    25
100
AcDbCircle
 10
76.5622631151
 20
-15.6342512661
 30
0.0
 40
0.5000000000000249
100
AcDbArc
 50
90.0
 51
171.1501169016
  0
ARC
  5
51E
330
1F
100
AcDbEntity
  8
0
  6
Continuous
 62
     7
370
    25
100
AcDbCircle
 10
72.8509549704
 20
57.3657487339
 30
0.0
 40
0.5000000000000142
100
AcDbArc
 50
0.0
 51
90.0
  0
ARC
  5
51F
330
1F
100
AcDbEntity
  8
0
  6
Continuous
 62
     7
370
    25
100
AcDbCircle
 10
68.3509549704
 20
56.3657487339
 30
0.0
 40
1.500000000000007
100
AcDbArc
 50
90.0
 51
270.0
  0
ARC
  5
520
330
1F
100
AcDbEntity
  8
0
  6
Continuous
 62
     7
370
    25
100
AcDbCircle
 10
70.1009549704
 20
54.3657487339
 30
0.0
 40
0.5000000000000568
100
AcDbArc
 50
0.0
 51
90.0
  0
ARC
  5
521
330
1F
100
AcDbEntity
  8
0
  6
Continuous
 62
     7
370
    25
100
AcDbCircle
 10
73.3509549704
 20
53.8657487339
 30
0.0
 40
2.749999999999972
100
AcDbArc
 50
180.0
 51
270.0
  0
ARC
  5
522
330
1F
100
AcDbEntity
  8
0
  6
Continuous
 62
     7
370
    25
100
AcDbCircle
 10
73.8509549704
 20
50.6157487339
 30
0.0
 40
0.5000000000000142
100
AcDbArc
 50
0.0
 51
90.0
  0
ARC
  5
523
330
1F
100
AcDbEntity
  8
0
  6
Continuous
 62
     7
370
    25
100
AcDbCircle
 10
75.8509549704
 20
48.8657487339
 30
0.0
 40
1.499999999999986
100
AcDbArc
 50
180.0
 51
0.0
  0
ARC
  5
524
330
1F
100
AcDbEntity
  8
0
  6
Continuous
 62
     7
370
    25
100
AcDbCircle
 10
76.8509549704
 20
53.3657487339
 30
0.0
 40
0.5
100
AcDbArc
 50
0.0
 51
90.0
  0
ARC
  5
525
330
1F
100
AcDbEntity
  8
0
  6
Continuous
 62
     7
370
    25
100
AcDbCircle
 10
76.5622631151
 20
54.3657487339
 30
0.0
 40
0.5000000000000417
100
AcDbArc
 50
188.8498830984
 51
270.0
  0
ARC
  5
526
330
1F
100
AcDbEntity
  8
0
  6
Continuous
 62
     7
370
    25
100
AcDbCircle
 10
73.3509549704
 20
53.8657487339
 30
0.0
 40
2.750000000000016
100
AcDbArc
 50
8.8498830984
 51
81.1501169016
  0
ARC
  5
527
330
1F
100
AcDbEntity
  8
0
  6
Continuous
 62
     7
370
    25
100
AcDbCircle
 10
73.8509549704
 20
57.0770568786
 30
0.0
 40
0.5000000000000152
100
AcDbArc
 50
180.0
 51
261.1501169016
  0
ARC
  5
528
330
1F
100
AcDbEntity
  8
0
  6
Continuous
 62
     7
370
    25
100
AcDbCircle
 10
23.8509549704
 20
2.0935630985
 30
0.0
 40
0.4999999999999967
100
AcDbArc
 50
293.5
 51
0.0
  0
ARC
  5
529
330
1F
100
AcDbEntity
  8
0
  6
Continuous
 62
     7
370
    25
100
AcDbCircle
 10
23.8509549704
 20
4.3657487339
 30
0.0
 40
0.5000000000000151
100
AcDbArc
 50
0.0000000001
 51
90.0
  0
ARC
  5
52A
330
1F
100
AcDbEntity
  8
0
  6
Continuous
 62
     7
370
    25
100
AcDbCircle
 10
21.578769335
 20
4.3657487339
 30
0.0
 40
0.4999999999998188
100
AcDbArc
 50
90.0
 51
156.5
  0
ARC
  5
52B
330
1F
100
AcDbEntity
  8
0
  6
Continuous
 62
     7
370
    25
100
AcDbCircle
 10
20.583921447
 20
4.5855980796
 30
0.0
 40
0.5000000000000228
100
AcDbArc
 50
251.6340659925
 51
336.5
  0
ARC
  5
52C
330
1F
100
AcDbEntity
  8
0
  6
Continuous
 62
     7
370
    25
100
AcDbCircle
 10
18.8509549704
 20
-0.6342512661
 30
0.0
 40
5.000000000000009
100
AcDbArc
 50
71.6340659925
 51
108.3659340075
  0
ARC
  5
52D
330
1F
100
AcDbEntity
  8
0
  6
Continuous
 62
     7
370
    25
100
AcDbCircle
 10
17.1179884938
 20
4.5855980796
 30
0.0
 40
0.4999999999999934
100
AcDbArc
 50
203.5
 51
288.3659340075
  0
ARC
  5
52E
330
1F
100
AcDbEntity
  8
0
  6
Continuous
 62
     7
370
    25
100
AcDbCircle
 10
16.1231406059
 20
4.3657487339
 30
0.0
 40
0.5000000000000012
100
AcDbArc
 50
23.5
 51
90.0
  0
ARC
  5
52F
330
1F
100
AcDbEntity
  8
0
  6
Continuous
 62
     7
370
    25
100
AcDbCircle
 10
13.8509549704
 20
4.3657487339
 30
0.0
 40
0.5000000000000036
100
AcDbArc
 50
90.0
 51
180.0
  0
ARC
  5
530
330
1F
100
AcDbEntity
  8
0
  6
Continuous
 62
     7
370
    25
100
AcDbCircle
 10
13.8509549704
 20
2.0935630985
 30
0.0
 40
0.4999999999999911
100
AcDbArc
 50
180.0
 51
246.5
  0
ARC
  5
531
330
1F
100
AcDbEntity
  8
0
  6
Continuous
 62
     7
370
    25
100
AcDbCircle
 10
13.6311056248
 20
1.0987152105
 30
0.0
 40
0.4999999999999863
100
AcDbArc
 50
341.6340659924
 51
66.5
  0
ARC
  5
532
330
1F
100
AcDbEntity
  8
0
  6
Continuous
 62
     7
370
    25
100
AcDbCircle
 10
18.8509549704
 20
-0.6342512661
 30
0.0
 40
4.999999999999568
100
AcDbArc
 50
161.6340659925
 51
198.3659340075
  0
ARC
  5
533
330
1F
100
AcDbEntity
  8
0
  6
Continuous
 62
     7
370
    25
100
AcDbCircle
 10
13.6311056248
 20
-2.3672177427
 30
0.0
 40
0.500000000000044
100
AcDbArc
 50
293.4999999999
 51
18.3659340075
  0
ARC
  5
534
330
1F
100
AcDbEntity
  8
0
  6
Continuous
 62
     7
370
    25
100
AcDbCircle
 10
13.8509549704
 20
-3.3620656306
 30
0.0
 40
0.4999999999999828
100
AcDbArc
 50
113.5
 51
180.0
  0
ARC
  5
535
330
1F
100
AcDbEntity
  8
0
  6
Continuous
 62
     7
370
    25
100
AcDbCircle
 10
13.8509549704
 20
-5.6342512661
 30
0.0
 40
0.5000000000000071
100
AcDbArc
 50
180.0
 51
270.0
  0
ARC
  5
536
330
1F
100
AcDbEntity
  8
0
  6
Continuous
 62
     7
370
    25
100
AcDbCircle
 10
16.1231406059
 20
-5.6342512661
 30
0.0
 40
0.4999999999999982
100
AcDbArc
 50
270.0
 51
336.5
  0
ARC
  5
537
330
1F
100
AcDbEntity
  8
0
  6
Continuous
 62
     7
370
    25
100
AcDbCircle
 10
17.1179884938
 20
-5.8541006117
 30
0.0
 40
0.5000000000000081
100
AcDbArc
 50
71.6340659925
 51
156.5
  0
ARC
  5
538
330
1F
100
AcDbEntity
  8
0
  6
Continuous
 62
     7
370
    25
100
AcDbCircle
 10
18.8509549704
 20
-0.6342512661
 30
0.0
 40
5.000000000000371
100
AcDbArc
 50
251.6340659925
 51
288.3659340075
  0
ARC
  5
539
330
1F
100
AcDbEntity
  8
0
  6
Continuous
 62
     7
370
    25
100
AcDbCircle
 10
20.583921447
 20
-5.8541006117
 30
0.0
 40
0.5000000000001805
100
AcDbArc
 50
23.4999999999
 51
108.3659340075
  0
ARC
  5
53A
330
1F
100
AcDbEntity
  8
0
  6
Continuous
 62
     7
370
    25
100
AcDbCircle
 10
21.578769335
 20
-5.6342512661
 30
0.0
 40
0.5000000000000409
100
AcDbArc
 50
203.5
 51
270.0
  0
ARC
  5
53B
330
1F
100
AcDbEntity
  8
0
  6
Continuous
 62
     7
370
    25
100
AcDbCircle
 10
23.8509549704
 20
-5.6342512661
 30
0.0
 40
0.4999999999999929
100
AcDbArc
 50
270.0
 51
0.0000000001
  0
ARC
  5
53C
330
1F
100
AcDbEntity
  8
0
  6
Continuous
 62
     7
370
    25
100
AcDbCircle
 10
23.8509549704
 20
-3.3620656306
 30
0.0
 40
0.4999999999999908
100
AcDbArc
 50
0.0
 51
66.5
  0
ARC
  5
53D
330
1F
100
AcDbEntity
  8
0
  6
Continuous
 62
     7
370
    25
100
AcDbCircle
 10
24.0708043161
 20
-2.3672177427
 30
0.0
 40
0.5000000000001344
100
AcDbArc
 50
161.6340659924
 51
246.5000000001
  0
ARC
  5
53E
330
1F
100
AcDbEntity
  8
0
  6
Continuous
 62
     7
370
    25
100
AcDbCircle
 10
18.8509549704
 20
-0.6342512661
 30
0.0
 40
4.999999999998614
100
AcDbArc
 50
341.6340659925
 51
18.3659340075
  0
ARC
  5
53F
330
1F
100
AcDbEntity
  8
0
  6
Continuous
 62
     7
370
    25
100
AcDbCircle
 10
1.8509549704
 20
48.8657487339
 30
0.0
 40
1.499999999999995
100
AcDbArc
 50
180.0
 51
0.0
  0
ARC
  5
540
330
1F
100
AcDbEntity
  8
0
  6
Continuous
 62
     7
370
    25
100
AcDbCircle
 10
3.8509549704
 20
50.6157487339
 30
0.0
 40
0.5000000000000147
100
AcDbArc
 50
90.0
 51
180.0
  0
ARC
  5
541
330
1F
100
AcDbEntity
  8
0
  6
Continuous
 62
     7
370
    25
100
AcDbCircle
 10
4.3509549704
 20
53.8657487339
 30
0.0
 40
2.749999999999986
100
AcDbArc
 50
270.0
 51
0.0
  0
ARC
  5
542
330
1F
100
AcDbEntity
  8
0
  6
Continuous
 62
     7
370
    25
100
AcDbCircle
 10
7.6009549704
 20
54.3657487339
 30
0.0
 40
0.5000000000000071
100
AcDbArc
 50
90.0
 51
180.0
  0
ARC
  5
543
330
1F
100
AcDbEntity
  8
0
  6
Continuous
 62
     7
370
    25
100
AcDbCircle
 10
9.3509549704
 20
56.3657487339
 30
0.0
 40
1.500000000000007
100
AcDbArc
 50
270.0
 51
90.0
  0
ARC
  5
544
330
1F
100
AcDbEntity
  8
0
  6
Continuous
 62
     7
370
    25
100
AcDbCircle
 10
4.8509549704
 20
57.3657487339
 30
0.0
 40
0.5000000000000151
100
AcDbArc
 50
90.0
 51
180.0
  0
ARC
  5
545
330
1F
100
AcDbEntity
  8
0
  6
Continuous
 62
     7
370
    25
100
AcDbCircle
 10
3.8509549704
 20
57.0770568786
 30
0.0
 40
0.4999999999999689
100
AcDbArc
 50
278.8498830984
 51
0.0
  0
ARC
  5
546
330
1F
100
AcDbEntity
  8
0
  6
Continuous
 62
     7
370
    25
100
AcDbCircle
 10
4.3509549704
 20
53.8657487339
 30
0.0
 40
2.750000000000024
100
AcDbArc
 50
98.8498830984
 51
171.1501169016
  0
ARC
  5
547
330
1F
100
AcDbEntity
  8
0
  6
Continuous
 62
     7
370
    25
100
AcDbCircle
 10
1.1396468258
 20
54.3657487339
 30
0.0
 40
0.5000000000000168
100
AcDbArc
 50
270.0
 51
351.1501169016
  0
ARC
  5
548
330
1F
100
AcDbEntity
  8
0
  6
Continuous
 62
     7
370
    25
100
AcDbCircle
 10
21.578769335
 20
34.3657487339
 30
0.0
 40
0.4999999999999289
100
AcDbArc
 50
203.5
 51
270.0
  0
ARC
  5
549
330
1F
100
AcDbEntity
  8
0
  6
Continuous
 62
     7
370
    25
100
AcDbCircle
 10
23.8509549704
 20
34.3657487339
 30
0.0
 40
0.5000000000000355
100
AcDbArc
 50
270.0
 51
0.0000000003
  0
ARC
  5
54A
330
1F
100
AcDbEntity
  8
0
  6
Continuous
 62
     7
370
    25
100
AcDbCircle
 10
23.8509549704
 20
36.6379343694
 30
0.0
 40
0.4999999999999041
100
AcDbArc
 50
0.0
 51
66.5000000003
  0
ARC
  5
54B
330
1F
100
AcDbEntity
  8
0
  6
Continuous
 62
     7
370
    25
100
AcDbCircle
 10
24.0708043161
 20
37.6327822573
 30
0.0
 40
0.4999999999999235
100
AcDbArc
 50
161.6340659928
 51
246.4999999997
  0
ARC
  5
54C
330
1F
100
AcDbEntity
  8
0
  6
Continuous
 62
     7
370
    25
100
AcDbCircle
 10
18.8509549704
 20
39.3657487339
 30
0.0
 40
4.999999999999844
100
AcDbArc
 50
341.6340659925
 51
18.3659340075
  0
ARC
  5
54D
330
1F
100
AcDbEntity
  8
0
  6
Continuous
 62
     7
370
    25
100
AcDbCircle
 10
24.0708043161
 20
41.0987152105
 30
0.0
 40
0.5000000000001157
100
AcDbArc
 50
113.5
 51
198.3659340074
  0
ARC
  5
54E
330
1F
100
AcDbEntity
  8
0
  6
Continuous
 62
     7
370
    25
100
AcDbCircle
 10
23.8509549704
 20
42.0935630985
 30
0.0
 40
0.5000000000000357
100
AcDbArc
 50
293.5
 51
360.0
  0
ARC
  5
54F
330
1F
100
AcDbEntity
  8
0
  6
Continuous
 62
     7
370
    25
100
AcDbCircle
 10
23.8509549704
 20
44.3657487339
 30
0.0
 40
0.5000000000003553
100
AcDbArc
 50
360.0
 51
90.0
  0
ARC
  5
550
330
1F
100
AcDbEntity
  8
0
  6
Continuous
 62
     7
370
    25
100
AcDbCircle
 10
21.578769335
 20
44.3657487339
 30
0.0
 40
0.5000000000000071
100
AcDbArc
 50
90.0
 51
156.5
  0
ARC
  5
551
330
1F
100
AcDbEntity
  8
0
  6
Continuous
 62
     7
370
    25
100
AcDbCircle
 10
20.583921447
 20
44.5855980796
 30
0.0
 40
0.5000000000000041
100
AcDbArc
 50
251.6340659925
 51
336.4999999999
  0
ARC
  5
552
330
1F
100
AcDbEntity
  8
0
  6
Continuous
 62
     7
370
    25
100
AcDbCircle
 10
18.8509549704
 20
39.3657487339
 30
0.0
 40
4.999999999999422
100
AcDbArc
 50
71.6340659925
 51
108.3659340075
  0
ARC
  5
553
330
1F
100
AcDbEntity
  8
0
  6
Continuous
 62
     7
370
    25
100
AcDbCircle
 10
17.1179884938
 20
44.5855980796
 30
0.0
 40
0.5000000000000934
100
AcDbArc
 50
203.5
 51
288.3659340075
  0
ARC
  5
554
330
1F
100
AcDbEntity
  8
0
  6
Continuous
 62
     7
370
    25
100
AcDbCircle
 10
16.1231406059
 20
44.3657487339
 30
0.0
 40
0.4999999999999716
100
AcDbArc
 50
23.5
 51
90.0
  0
ARC
  5
555
330
1F
100
AcDbEntity
  8
0
  6
Continuous
 62
     7
370
    25
100
AcDbCircle
 10
13.8509549704
 20
44.3657487339
 30
0.0
 40
0.5
100
AcDbArc
 50
90.0
 51
180.0
  0
ARC
  5
556
330
1F
100
AcDbEntity
  8
0
  6
Continuous
 62
     7
370
    25
100
AcDbCircle
 10
13.8509549704
 20
42.0935630985
 30
0.0
 40
0.4999999999999929
100
AcDbArc
 50
180.0
 51
246.5
  0
ARC
  5
557
330
1F
100
AcDbEntity
  8
0
  6
Continuous
 62
     7
370
    25
100
AcDbCircle
 10
13.6311056248
 20
41.0987152105
 30
0.0
 40
0.4999999999999071
100
AcDbArc
 50
341.6340659925
 51
66.5
  0
ARC
  5
558
330
1F
100
AcDbEntity
  8
0
  6
Continuous
 62
     7
370
    25
100
AcDbCircle
 10
18.8509549704
 20
39.3657487339
 30
0.0
 40
5.000000000000079
100
AcDbArc
 50
161.6340659925
 51
198.3659340075
  0
ARC
  5
559
330
1F
100
AcDbEntity
  8
0
  6
Continuous
 62
     7
370
    25
100
AcDbCircle
 10
13.6311056248
 20
37.6327822573
 30
0.0
 40
0.4999999999999322
100
AcDbArc
 50
293.5
 51
18.3659340075
  0
ARC
  5
55A
330
1F
100
AcDbEntity
  8
0
  6
Continuous
 62
     7
370
    25
100
AcDbCircle
 10
13.8509549704
 20
36.6379343694
 30
0.0
 40
0.499999999999801
100
AcDbArc
 50
113.5
 51
180.0000000001
  0
ARC
  5
55B
330
1F
100
AcDbEntity
  8
0
  6
Continuous
 62
     7
370
    25
100
AcDbCircle
 10
13.8509549704
 20
34.3657487339
 30
0.0
 40
0.5000000000000018
100
AcDbArc
 50
180.0
 51
270.0000000002
  0
ARC
  5
55C
330
1F
100
AcDbEntity
  8
0
  6
Continuous
 62
     7
370
    25
100
AcDbCircle
 10
16.1231406059
 20
34.3657487339
 30
0.0
 40
0.5000000000000173
100
AcDbArc
 50
270.0
 51
336.5
  0
ARC
  5
55D
330
1F
100
AcDbEntity
  8
0
  6
Continuous
 62
     7
370
    25
100
AcDbCircle
 10
17.1179884939
 20
34.1458993883
 30
0.0
 40
0.4999999999999835
100
AcDbArc
 50
71.6340659927
 51
156.5
  0
ARC
  5
55E
330
1F
100
AcDbEntity
  8
0
  6
Continuous
 62
     7
370
    25
100
AcDbCircle
 10
18.8509549704
 20
39.3657487339
 30
0.0
 40
5.000000000000837
100
AcDbArc
 50
251.6340659925
 51
288.3659340075
  0
ARC
  5
55F
330
1F
100
AcDbEntity
  8
0
  6
Continuous
 62
     7
370
    25
100
AcDbCircle
 10
9.3509549704
 20
-17.6342512661
 30
0.0
 40
1.500000000000348
100
AcDbArc
 50
270.0
 51
90.0
  0
ARC
  5
560
330
1F
100
AcDbEntity
  8
0
  6
Continuous
 62
     7
370
    25
100
AcDbCircle
 10
7.6009549704
 20
-15.6342512661
 30
0.0
 40
0.5000000000000044
100
AcDbArc
 50
180.0
 51
270.0
  0
ARC
  5
561
330
1F
100
AcDbEntity
  8
0
  6
Continuous
 62
     7
370
    25
100
AcDbCircle
 10
4.3509549704
 20
-15.1342512661
 30
0.0
 40
2.750000000000002
100
AcDbArc
 50
360.0
 51
90.0
  0
ARC
  5
562
330
1F
100
AcDbEntity
  8
0
  6
Continuous
 62
     7
370
    25
100
AcDbCircle
 10
3.8509549704
 20
-11.8842512661
 30
0.0
 40
0.500000000000016
100
AcDbArc
 50
180.0
 51
270.0000000001
  0
ARC
  5
563
330
1F
100
AcDbEntity
  8
0
  6
Continuous
 62
     7
370
    25
100
AcDbCircle
 10
1.8509549704
 20
-10.1342512661
 30
0.0
 40
1.500000000000002
100
AcDbArc
 50
0.0
 51
180.0
  0
ARC
  5
564
330
1F
100
AcDbEntity
  8
0
  6
Continuous
 62
     7
370
    25
100
AcDbCircle
 10
0.8509549704
 20
-14.6342512661
 30
0.0
 40
0.5000000000000037
100
AcDbArc
 50
180.0
 51
270.0
  0
ARC
  5
565
330
1F
100
AcDbEntity
  8
0
  6
Continuous
 62
     7
370
    25
100
AcDbCircle
 10
1.1396468258
 20
-15.6342512661
 30
0.0
 40
0.4999999999999947
100
AcDbArc
 50
8.8498830984
 51
90.0
  0
ARC
  5
566
330
1F
100
AcDbEntity
  8
0
  6
Continuous
 62
     7
370
    25
100
AcDbCircle
 10
4.3509549704
 20
-15.1342512661
 30
0.0
 40
2.750000000000677
100
AcDbArc
 50
188.8498830984
 51
261.1501169016
  0
ARC
  5
567
330
1F
100
AcDbEntity
  8
0
  6
Continuous
 62
     7
370
    25
100
AcDbCircle
 10
3.8509549704
 20
-18.3455594107
 30
0.0
 40
0.4999999999999996
100
AcDbArc
 50
360.0
 51
81.1501169016
  0
ARC
  5
568
330
1F
100
AcDbEntity
  8
0
  6
Continuous
 62
     7
370
    25
100
AcDbCircle
 10
63.8509549704
 20
42.0935630985
 30
0.0
 40
0.5000000000000142
100
AcDbArc
 50
293.5
 51
0.0
  0
ARC
  5
569
330
1F
100
AcDbEntity
  8
0
  6
Continuous
 62
     7
370
    25
100
AcDbCircle
 10
63.8509549704
 20
44.3657487339
 30
0.0
 40
0.5000000000000071
100
AcDbArc
 50
0.0
 51
90.0
  0
ARC
  5
56A
330
1F
100
AcDbEntity
  8
0
  6
Continuous
 62
     7
370
    25
100
AcDbCircle
 10
61.578769335
 20
44.3657487339
 30
0.0
 40
0.5000000000000284
100
AcDbArc
 50
90.0
 51
156.5
  0
ARC
  5
56B
330
1F
100
AcDbEntity
  8
0
  6
Continuous
 62
     7
370
    25
100
AcDbCircle
 10
60.583921447
 20
44.5855980796
 30
0.0
 40
0.500000000000042
100
AcDbArc
 50
251.6340659925
 51
336.5
  0
ARC
  5
56C
330
1F
100
AcDbEntity
  8
0
  6
Continuous
 62
     7
370
    25
100
AcDbCircle
 10
58.8509549704
 20
39.3657487339
 30
0.0
 40
5.000000000000028
100
AcDbArc
 50
71.6340659925
 51
108.3659340075
  0
ARC
  5
56D
330
1F
100
AcDbEntity
  8
0
  6
Continuous
 62
     7
370
    25
100
AcDbCircle
 10
57.1179884938
 20
44.5855980796
 30
0.0
 40
0.5000000000000697
100
AcDbArc
 50
203.5
 51
288.3659340075
  0
ARC
  5
56E
330
1F
100
AcDbEntity
  8
0
  6
Continuous
 62
     7
370
    25
100
AcDbCircle
 10
56.1231406059
 20
44.3657487339
 30
0.0
 40
0.4999999999999858
100
AcDbArc
 50
23.5
 51
90.0
  0
ARC
  5
56F
330
1F
100
AcDbEntity
  8
0
  6
Continuous
 62
     7
370
    25
100
AcDbCircle
 10
53.8509549704
 20
44.3657487339
 30
0.0
 40
0.4999999999999503
100
AcDbArc
 50
90.0
 51
180.0
  0
ARC
  5
570
330
1F
100
AcDbEntity
  8
0
  6
Continuous
 62
     7
370
    25
100
AcDbCircle
 10
53.8509549704
 20
42.0935630985
 30
0.0
 40
0.4999999999999949
100
AcDbArc
 50
180.0
 51
246.5
  0
ARC
  5
571
330
1F
100
AcDbEntity
  8
0
  6
Continuous
 62
     7
370
    25
100
AcDbCircle
 10
53.6311056248
 20
41.0987152105
 30
0.0
 40
0.4999999999999991
100
AcDbArc
 50
341.6340659925
 51
66.5
  0
ARC
  5
572
330
1F
100
AcDbEntity
  8
0
  6
Continuous
 62
     7
370
    25
100
AcDbCircle
 10
58.8509549704
 20
39.3657487339
 30
0.0
 40
4.999999999999627
100
AcDbArc
 50
161.6340659925
 51
198.3659340075
  0
ARC
  5
573
330
1F
100
AcDbEntity
  8
0
  6
Continuous
 62
     7
370
    25
100
AcDbCircle
 10
53.6311056248
 20
37.6327822573
 30
0.0
 40
0.5000000000000284
100
AcDbArc
 50
293.5000000001
 51
18.3659340075
  0
ARC
  5
574
330
1F
100
AcDbEntity
  8
0
  6
Continuous
 62
     7
370
    25
100
AcDbCircle
 10
53.8509549704
 20
36.6379343694
 30
0.0
 40
0.4999999999999929
100
AcDbArc
 50
113.5
 51
180.0
  0
ARC
  5
575
330
1F
100
AcDbEntity
  8
0
  6
Continuous
 62
     7
370
    25
100
AcDbCircle
 10
53.8509549704
 20
34.3657487339
 30
0.0
 40
0.5000000000000071
100
AcDbArc
 50
180.0
 51
270.0000000001
  0
ARC
  5
576
330
1F
100
AcDbEntity
  8
0
  6
Continuous
 62
     7
370
    25
100
AcDbCircle
 10
56.1231406059
 20
34.3657487339
 30
0.0
 40
0.5000000000000199
100
AcDbArc
 50
270.0
 51
336.5
  0
ARC
  5
577
330
1F
100
AcDbEntity
  8
0
  6
Continuous
 62
     7
370
    25
100
AcDbCircle
 10
57.1179884939
 20
34.1458993883
 30
0.0
 40
0.4999999999999533
100
AcDbArc
 50
71.6340659924
 51
156.5
  0
ARC
  5
578
330
1F
100
AcDbEntity
  8
0
  6
Continuous
 62
     7
370
    25
100
AcDbCircle
 10
58.8509549704
 20
39.3657487339
 30
0.0
 40
4.999999999998847
100
AcDbArc
 50
251.6340659925
 51
288.3659340075
  0
ARC
  5
579
330
1F
100
AcDbEntity
  8
0
  6
Continuous
 62
     7
370
    25
100
AcDbCircle
 10
60.583921447
 20
34.1458993883
 30
0.0
 40
0.5000000000000778
100
AcDbArc
 50
23.5000000001
 51
108.3659340075
  0
ARC
  5
57A
330
1F
100
AcDbEntity
  8
0
  6
Continuous
 62
     7
370
    25
100
AcDbCircle
 10
61.578769335
 20
34.3657487339
 30
0.0
 40
0.5000000000000355
100
AcDbArc
 50
203.5
 51
270.0
  0
ARC
  5
57B
330
1F
100
AcDbEntity
  8
0
  6
Continuous
 62
     7
370
    25
100
AcDbCircle
 10
63.8509549704
 20
34.3657487339
 30
0.0
 40
0.4999999999999716
100
AcDbArc
 50
270.0
 51
0.0
  0
ARC
  5
57C
330
1F
100
AcDbEntity
  8
0
  6
Continuous
 62
     7
370
    25
100
AcDbCircle
 10
63.8509549704
 20
36.6379343694
 30
0.0
 40
0.5000000000001018
100
AcDbArc
 50
360.0
 51
66.4999999999
  0
ARC
  5
57D
330
1F
100
AcDbEntity
  8
0
  6
Continuous
 62
     7
370
    25
100
AcDbCircle
 10
64.0708043161
 20
37.6327822573
 30
0.0
 40
0.4999999999998935
100
AcDbArc
 50
161.6340659927
 51
246.4999999999
  0
ARC
  5
57E
330
1F
100
AcDbEntity
  8
0
  6
Continuous
 62
     7
370
    25
100
AcDbCircle
 10
58.8509549704
 20
39.3657487339
 30
0.0
 40
5.000000000000154
100
AcDbArc
 50
341.6340659925
 51
18.3659340075
  0
ARC
  5
57F
330
1F
100
AcDbEntity
  8
0
  6
Continuous
 62
     7
370
    25
100
AcDbCircle
 10
64.0708043161
 20
41.0987152105
 30
0.0
 40
0.4999999999999819
100
AcDbArc
 50
113.5
 51
198.3659340075
  0
ARC
  5
580
330
1F
100
AcDbEntity
  8
0
  6
Continuous
 62
     7
370
    25
100
AcDbCircle
 10
61.578769335
 20
-5.6342512661
 30
0.0
 40
0.5000000000000188
100
AcDbArc
 50
203.5
 51
270.0
  0
ARC
  5
581
330
1F
100
AcDbEntity
  8
0
  6
Continuous
 62
     7
370
    25
100
AcDbCircle
 10
63.8509549704
 20
-5.6342512661
 30
0.0
 40
0.5
100
AcDbArc
 50
270.0
 51
0.0
  0
ARC
  5
582
330
1F
100
AcDbEntity
  8
0
  6
Continuous
 62
     7
370
    25
100
AcDbCircle
 10
63.8509549704
 20
-3.3620656306
 30
0.0
 40
0.4999999999999986
100
AcDbArc
 50
0.0
 51
66.5
  0
ARC
  5
583
330
1F
100
AcDbEntity
  8
0
  6
Continuous
 62
     7
370
    25
100
AcDbCircle
 10
64.0708043161
 20
-2.3672177427
 30
0.0
 40
0.4999999999997832
100
AcDbArc
 50
161.6340659923
 51
246.5000000001
  0
ARC
  5
584
330
1F
100
AcDbEntity
  8
0
  6
Continuous
 62
     7
370
    25
100
AcDbCircle
 10
58.8509549704
 20
-0.6342512661
 30
0.0
 40
4.999999999999995
100
AcDbArc
 50
341.6340659925
 51
18.3659340075
  0
ARC
  5
585
330
1F
100
AcDbEntity
  8
0
  6
Continuous
 62
     7
370
    25
100
AcDbCircle
 10
64.0708043161
 20
1.0987152105
 30
0.0
 40
0.4999999999997327
100
AcDbArc
 50
113.5000000001
 51
198.3659340072
  0
ARC
  5
586
330
1F
100
AcDbEntity
  8
0
  6
Continuous
 62
     7
370
    25
100
AcDbCircle
 10
63.8509549704
 20
2.0935630985
 30
0.0
 40
0.5000000000000094
100
AcDbArc
 50
293.5
 51
0.0
  0
ARC
  5
587
330
1F
100
AcDbEntity
  8
0
  6
Continuous
 62
     7
370
    25
100
AcDbCircle
 10
63.8509549704
 20
4.3657487339
 30
0.0
 40
0.5000000000000266
100
AcDbArc
 50
360.0
 51
90.0
  0
ARC
  5
588
330
1F
100
AcDbEntity
  8
0
  6
Continuous
 62
     7
370
    25
100
AcDbCircle
 10
61.578769335
 20
4.3657487339
 30
0.0
 40
0.4999999999999929
100
AcDbArc
 50
90.0
 51
156.5
  0
ARC
  5
589
330
1F
100
AcDbEntity
  8
0
  6
Continuous
 62
     7
370
    25
100
AcDbCircle
 10
60.583921447
 20
4.5855980796
 30
0.0
 40
0.500000000000002
100
AcDbArc
 50
251.6340659925
 51
336.5
  0
ARC
  5
58A
330
1F
100
AcDbEntity
  8
0
  6
Continuous
 62
     7
370
    25
100
AcDbCircle
 10
58.8509549704
 20
-0.6342512661
 30
0.0
 40
4.999999999997369
100
AcDbArc
 50
71.6340659925
 51
108.3659340075
  0
ARC
  5
58B
330
1F
100
AcDbEntity
  8
0
  6
Continuous
 62
     7
370
    25
100
AcDbCircle
 10
57.1179884939
 20
4.5855980796
 30
0.0
 40
0.4999999999999533
100
AcDbArc
 50
203.5000000001
 51
288.3659340074
  0
ARC
  5
58C
330
1F
100
AcDbEntity
  8
0
  6
Continuous
 62
     7
370
    25
100
AcDbCircle
 10
56.1231406059
 20
4.3657487339
 30
0.0
 40
0.4999999999999625
100
AcDbArc
 50
23.4999999997
 51
90.0
  0
ARC
  5
58D
330
1F
100
AcDbEntity
  8
0
  6
Continuous
 62
     7
370
    25
100
AcDbCircle
 10
53.8509549704
 20
4.3657487339
 30
0.0
 40
0.500000000000071
100
AcDbArc
 50
89.9999999998
 51
180.0
  0
ARC
  5
58E
330
1F
100
AcDbEntity
  8
0
  6
Continuous
 62
     7
370
    25
100
AcDbCircle
 10
53.8509549704
 20
2.0935630985
 30
0.0
 40
0.5000000000000142
100
AcDbArc
 50
179.9999999999
 51
246.5
  0
ARC
  5
58F
330
1F
100
AcDbEntity
  8
0
  6
Continuous
 62
     7
370
    25
100
AcDbCircle
 10
53.6311056248
 20
1.0987152105
 30
0.0
 40
0.4999999999999579
100
AcDbArc
 50
341.6340659925
 51
66.4999999999
  0
ARC
  5
590
330
1F
100
AcDbEntity
  8
0
  6
Continuous
 62
     7
370
    25
100
AcDbCircle
 10
58.8509549704
 20
-0.6342512661
 30
0.0
 40
5.00000000000147
100
AcDbArc
 50
161.6340659925
 51
198.3659340075
  0
ARC
  5
591
330
1F
100
AcDbEntity
  8
0
  6
Continuous
 62
     7
370
    25
100
AcDbCircle
 10
53.6311056248
 20
-2.3672177427
 30
0.0
 40
0.5000000000001102
100
AcDbArc
 50
293.5
 51
18.3659340074
  0
ARC
  5
592
330
1F
100
AcDbEntity
  8
0
  6
Continuous
 62
     7
370
    25
100
AcDbCircle
 10
53.8509549704
 20
-3.3620656306
 30
0.0
 40
0.499999999999993
100
AcDbArc
 50
113.5
 51
180.0
  0
ARC
  5
593
330
1F
100
AcDbEntity
  8
0
  6
Continuous
 62
     7
370
    25
100
AcDbCircle
 10
53.8509549704
 20
-5.6342512661
 30
0.0
 40
0.500000000000008
100
AcDbArc
 50
179.9999999999
 51
270.0
  0
ARC
  5
594
330
1F
100
AcDbEntity
  8
0
  6
Continuous
 62
     7
370
    25
100
AcDbCircle
 10
56.1231406059
 20
-5.6342512661
 30
0.0
 40
0.5000000000003085
100
AcDbArc
 50
270.0
 51
336.5
  0
ARC
  5
595
330
1F
100
AcDbEntity
  8
0
  6
Continuous
 62
     7
370
    25
100
AcDbCircle
 10
57.1179884938
 20
-5.8541006117
 30
0.0
 40
0.4999999999996365
100
AcDbArc
 50
71.6340659925
 51
156.5
  0
ARC
  5
596
330
1F
100
AcDbEntity
  8
0
  6
Continuous
 62
     7
370
    25
100
AcDbCircle
 10
58.8509549704
 20
-0.6342512661
 30
0.0
 40
4.999999999997959
100
AcDbArc
 50
251.6340659925
 51
288.3659340076
  0
ARC
  5
597
330
1F
100
AcDbEntity
  8
0
  6
Continuous
 62
     7
370
    25
100
AcDbCircle
 10
60.583921447
 20
-5.8541006117
 30
0.0
 40
0.4999999999995098
100
AcDbArc
 50
23.4999999999
 51
108.3659340075
  0
ARC
  5
598
330
1F
100
AcDbEntity
  8
0
  6
Continuous
 62
     7
370
    25
100
AcDbCircle
 10
54.8459541889
 20
7.8657487339
 30
0.0
 40
0.9999999999999938
100
AcDbArc
 50
144.284819993
 51
270.0
  0
ARC
  5
599
330
1F
100
AcDbEntity
  8
0
  6
Continuous
 62
     7
370
    25
100
AcDbCircle
 10
57.8509549704
 20
6.3657487339
 30
0.0
 40
0.4999999999999947
100
AcDbArc
 50
60.0
 51
90.0
  0
ARC
  5
59A
330
1F
100
AcDbEntity
  8
0
  6
Continuous
 62
     7
370
    25
100
AcDbCircle
 10
58.8509549704
 20
6.9430990031
 30
0.0
 40
0.500000000000031
100
AcDbArc
 50
240.0
 51
300.0
  0
ARC
  5
59B
330
1F
100
AcDbEntity
  8
0
  6
Continuous
 62
     7
370
    25
100
AcDbCircle
 10
59.8509549704
 20
6.3657487339
 30
0.0
 40
0.5000000000000675
100
AcDbArc
 50
90.0
 51
120.0
  0
ARC
  5
59C
330
1F
100
AcDbEntity
  8
0
  6
Continuous
 62
     7
370
    25
100
AcDbCircle
 10
64.7296346269
 20
7.3657487339
 30
0.0
 40
0.5000000000000959
100
AcDbArc
 50
270.0
 51
315.0
  0
ARC
  5
59D
330
1F
100
AcDbEntity
  8
0
  6
Continuous
 62
     7
370
    25
100
AcDbCircle
 10
69.6938481893
 20
10.9157487339
 30
0.0
 40
0.5000000000001545
100
AcDbArc
 50
90.0
 51
135.0
  0
ARC
  5
59E
330
1F
100
AcDbEntity
  8
0
  6
Continuous
 62
     7
370
    25
100
AcDbCircle
 10
75.3509549704
 20
11.9174474037
 30
0.0
 40
0.4999999999999779
100
AcDbArc
 50
269.8056770587
 51
0.0
  0
ARC
  5
59F
330
1F
100
AcDbEntity
  8
0
  6
Continuous
 62
     7
370
    25
100
AcDbCircle
 10
75.3509549704
 20
26.8140500642
 30
0.0
 40
0.500000000000015
100
AcDbArc
 50
0.0
 51
90.1943229413
  0
ARC
  5
5A0
330
1F
100
AcDbEntity
  8
0
  6
Continuous
 62
     7
370
    25
100
AcDbCircle
 10
69.6938481893
 20
27.8157487339
 30
0.0
 40
0.500000000000313
100
AcDbArc
 50
225.0
 51
270.0
  0
ARC
  5
5A1
330
1F
100
AcDbEntity
  8
0
  6
Continuous
 62
     7
370
    25
100
AcDbCircle
 10
64.7296346269
 20
31.3657487339
 30
0.0
 40
0.4999999999999929
100
AcDbArc
 50
45.0
 51
90.0
  0
ARC
  5
5A2
330
1F
100
AcDbEntity
  8
0
  6
Continuous
 62
     7
370
    25
100
AcDbCircle
 10
59.8509549704
 20
32.3657487339
 30
0.0
 40
0.5000000000003837
100
AcDbArc
 50
240.0
 51
270.0
  0
ARC
  5
5A3
330
1F
100
AcDbEntity
  8
0
  6
Continuous
 62
     7
370
    25
100
AcDbCircle
 10
58.8509549704
 20
31.7883984647
 30
0.0
 40
0.4999999999999861
100
AcDbArc
 50
60.0
 51
120.0
  0
ARC
  5
5A4
330
1F
100
AcDbEntity
  8
0
  6
Continuous
 62
     7
370
    25
100
AcDbCircle
 10
57.8509549704
 20
32.3657487339
 30
0.0
 40
0.4999999999999005
100
AcDbArc
 50
270.0
 51
300.0
  0
ARC
  5
5A5
330
1F
100
AcDbEntity
  8
0
  6
Continuous
 62
     7
370
    25
100
AcDbCircle
 10
54.8459541889
 20
30.8657487339
 30
0.0
 40
0.9999999999999863
100
AcDbArc
 50
90.0
 51
215.715180007
  0
ARC
  5
5A6
330
1F
100
AcDbEntity
  8
0
  6
Continuous
 62
     7
370
    25
100
AcDbCircle
 10
18.8509549704
 20
31.7883984647
 30
0.0
 40
0.49999999999998
100
AcDbArc
 50
60.0
 51
120.0
  0
ARC
  5
5A7
330
1F
100
AcDbEntity
  8
0
  6
Continuous
 62
     7
370
    25
100
AcDbCircle
 10
17.8509549704
 20
32.3657487339
 30
0.0
 40
0.5000000000000117
100
AcDbArc
 50
270.0
 51
300.0
  0
ARC
  5
5A8
330
1F
100
AcDbEntity
  8
0
  6
Continuous
 62
     7
370
    25
100
AcDbCircle
 10
12.972275314
 20
31.3657487339
 30
0.0
 40
0.4999999999999513
100
AcDbArc
 50
90.0
 51
135.0
  0
ARC
  5
5A9
330
1F
100
AcDbEntity
  8
0
  6
Continuous
 62
     7
370
    25
100
AcDbCircle
 10
8.0080617516
 20
27.8157487339
 30
0.0
 40
0.5000000000000254
100
AcDbArc
 50
270.0
 51
315.0
  0
ARC
  5
5AA
330
1F
100
AcDbEntity
  8
0
  6
Continuous
 62
     7
370
    25
100
AcDbCircle
 10
2.3509549704
 20
26.8140500642
 30
0.0
 40
0.5000000000000187
100
AcDbArc
 50
89.8056770587
 51
180.0
  0
ARC
  5
5AB
330
1F
100
AcDbEntity
  8
0
  6
Continuous
 62
     7
370
    25
100
AcDbCircle
 10
2.3509549704
 20
11.9174474037
 30
0.0
 40
0.5000000000000204
100
AcDbArc
 50
180.0
 51
270.1943229413
  0
ARC
  5
5AC
330
1F
100
AcDbEntity
  8
0
  6
Continuous
 62
     7
370
    25
100
AcDbCircle
 10
8.0080617516
 20
10.9157487339
 30
0.0
 40
0.4999999999999201
100
AcDbArc
 50
45.0
 51
90.0
  0
ARC
  5
5AD
330
1F
100
AcDbEntity
  8
0
  6
Continuous
 62
     7
370
    25
100
AcDbCircle
 10
12.972275314
 20
7.3657487339
 30
0.0
 40
0.5000000000000613
100
AcDbArc
 50
225.0
 51
270.0
  0
ARC
  5
5AE
330
1F
100
AcDbEntity
  8
0
  6
Continuous
 62
     7
370
    25
100
AcDbCircle
 10
17.8509549704
 20
6.3657487339
 30
0.0
 40
0.4999999999999263
100
AcDbArc
 50
60.0
 51
90.0
  0
ARC
  5
5AF
330
1F
100
AcDbEntity
  8
0
  6
Continuous
 62
     7
370
    25
100
AcDbCircle
 10
18.8509549704
 20
6.9430990031
 30
0.0
 40
0.5000000000000315
100
AcDbArc
 50
240.0
 51
300.0
  0
ARC
  5
5B0
330
1F
100
AcDbEntity
  8
0
  6
Continuous
 62
     7
370
    25
100
AcDbCircle
 10
19.8509549704
 20
6.3657487339
 30
0.0
 40
0.5000000000001705
100
AcDbArc
 50
90.0
 51
120.0
  0
ARC
  5
5B1
330
1F
100
AcDbEntity
  8
0
  6
Continuous
 62
     7
370
    25
100
AcDbCircle
 10
22.8559557519
 20
7.8657487339
 30
0.0
 40
0.9999999999999991
100
AcDbArc
 50
270.0
 51
35.715180007
  0
ARC
  5
5B2
330
1F
100
AcDbEntity
  8
0
  6
Continuous
 62
     7
370
    25
100
AcDbCircle
 10
38.8509549704
 20
19.3657487339
 30
0.0
 40
18.70000000000002
100
AcDbArc
 50
144.284819993
 51
215.715180007
  0
ARC
  5
5B3
330
1F
100
AcDbEntity
  8
0
  6
Continuous
 62
     7
370
    25
100
AcDbCircle
 10
22.8559557519
 20
30.8657487339
 30
0.0
 40
0.9999999999999978
100
AcDbArc
 50
324.284819993
 51
90.0
  0
ENDSEC
  0
SECTION
  2
OBJECTS
  0
DICTIONARY
  5
C
330
0
100
AcDbDictionary
281
     1
  3
ACAD_GROUP
350
D
  3
ACAD_LAYOUT
350
1A
  3
ACAD_MLINESTYLE
350
17
  3
ACAD_PLOTSETTINGS
350
19
  3
ACAD_PLOTSTYLENAME
350
E
  3
ACAD_SCALELIST
350
47
  0
DICTIONARY
  5
D
102
{ACAD_REACTORS
330
C
102
}
330
C
100
AcDbDictionary
281
     1
  0
DICTIONARY
  5
1A
102
{ACAD_REACTORS
330
C
102
}
330
C
100
AcDbDictionary
281
     1
  3
Layout1
350
1E
  3
Layout2
350
26
  3
Model
350
22
  0
DICTIONARY
  5
17
102
{ACAD_REACTORS
330
C
102
}
330
C
100
AcDbDictionary
281
     1
  3
Standard
350
18
  0
DICTIONARY
  5
19
102
{ACAD_REACTORS
330
C
102
}
330
C
100
AcDbDictionary
281
     1
  0
ACDBDICTIONARYWDFLT
  5
E
102
{ACAD_REACTORS
330
C
102
}
330
C
100
AcDbDictionary
281
     1
  3
Normal
350
F
100
AcDbDictionaryWithDefault
340
F
  0
DICTIONARY
  5
47
102
{ACAD_REACTORS
330
C
102
}
330
C
100
AcDbDictionary
281
     1
  3
A0
350
48
  3
A1
350
49
  3
A2
350
4A
  3
A3
350
4B
  3
A4
350
4C
  3
A5
350
4D
  3
A6
350
4E
  3
A7
350
4F
  3
A8
350
50
  3
A9
350
51
  3
B0
350
52
  3
B1
350
53
  3
B2
350
54
  3
B3
350
55
  3
B4
350
56
  3
B5
350
57
  3
B6
350
58
  3
B7
350
59
  3
B8
350
5A
  3
B9
350
5B
  3
C0
350
5C
  3
C1
350
5D
  3
C2
350
5E
  3
C3
350
5F
  3
C4
350
60
  3
C5
350
61
  3
C6
350
62
  3
C7
350
63
  3
C8
350
64
  3
C9
350
65
  3
D0
350
66
  3
D1
350
67
  3
D2
350
68
  0
LAYOUT
  5
1E
102
{ACAD_REACTORS
330
1A
102
}
330
1A
100
AcDbPlotSettings
  1

  2
none_device
  4

  6

 40
0.0
 41
0.0
 42
0.0
 43
0.0
 44
0.0
 45
0.0
 46
0.0
 47
0.0
 48
0.0
 49
0.0
140
0.0
141
0.0
142
1.0
143
1.0
 70
   688
 72
     1
 73
     0
 74
     5
  7

 75
    16
147
1.0
148
0.0
149
0.0
100
AcDbLayout
  1
Layout1
 70
     1
 71
     1
 10
0.0
 20
0.0
 11
420.0
 21
297.0
 12
0.0
 22
0.0
 32
0.0
 14
1.0000000000E+20
 24
1.0000000000E+20
 34
1.0000000000E+20
 15
-1.0000000000E+20
 25
-1.0000000000E+20
 35
-1.0000000000E+20
146
0.0
 13
0.0
 23
0.0
 33
0.0
 16
1.0
 26
0.0
 36
0.0
 17
0.0
 27
1.0
 37
0.0
 76
     0
330
1B
  0
LAYOUT
  5
26
102
{ACAD_REACTORS
330
1A
102
}
330
1A
100
AcDbPlotSettings
  1

  2
none_device
  4

  6

 40
0.0
 41
0.0
 42
0.0
 43
0.0
 44
0.0
 45
0.0
 46
0.0
 47
0.0
 48
0.0
 49
0.0
140
0.0
141
0.0
142
1.0
143
1.0
 70
   688
 72
     1
 73
     0
 74
     5
  7

 75
    16
147
1.0
148
0.0
149
0.0
100
AcDbLayout
  1
Layout2
 70
     1
 71
     2
 10
0.0
 20
0.0
 11
0.0
 21
0.0
 12
0.0
 22
0.0
 32
0.0
 14
0.0
 24
0.0
 34
0.0
 15
0.0
 25
0.0
 35
0.0
146
0.0
 13
0.0
 23
0.0
 33
0.0
 16
1.0
 26
0.0
 36
0.0
 17
0.0
 27
1.0
 37
0.0
 76
     0
330
23
  0
LAYOUT
  5
22
102
{ACAD_REACTORS
330
1A
102
}
330
1A
100
AcDbPlotSettings
  1

  2
none_device
  4
ANSI_A_(11.00_x_8.50_Inches)
  6

 40
6.35
 41
19.05
 42
6.35000508
 43
19.05000254
 44
279.4
 45
215.9
 46
29.5494728808
 47
37.1593174783
 48
0.0
 49
0.0
140
0.0
141
0.0
142
0.1051875
143
1.0
 70
  1696
 72
     0
 73
     0
 74
     0
  7

 75
     0
147
0.0179189148
148
-1300.4909072572
149
0.0
100
AcDbLayout
  1
Model
 70
     1
 71
     0
 10
0.0
 20
0.0
 11
420.0
 21
297.0
 12
0.0
 22
0.0
 32
0.0
 14
-1.1490450296
 24
-20.6342512661
 34
0.0
 15
78.8509549704
 25
59.3657487339
 35
0.0
146
0.0
 13
0.0
 23
0.0
 33
0.0
 16
1.0
 26
0.0
 36
0.0
 17
0.0
 27
1.0
 37
0.0
 76
     0
330
1F
331
29
  0
MLINESTYLE
  5
18
102
{ACAD_REACTORS
330
17
102
}
330
17
100
AcDbMlineStyle
  2
Standard
 70
     0
  3

 62
   256
 51
90.0
 52
90.0
 71
     2
 49
0.5
 62
   256
  6
BYLAYER
 49
-0.5
 62
   256
  6
BYLAYER
  0
ACDBPLACEHOLDER
  5
F
102
{ACAD_REACTORS
330
E
102
}
330
E
  0
SCALE
  5
48
102
{ACAD_REACTORS
330
47
102
}
330
47
100
AcDbScale
 70
     0
300
1:1
140
1.0
141
1.0
290
     1
  0
SCALE
  5
49
102
{ACAD_REACTORS
330
47
102
}
330
47
100
AcDbScale
 70
     0
300
1:2
140
1.0
141
2.0
290
     0
  0
SCALE
  5
4A
102
{ACAD_REACTORS
330
47
102
}
330
47
100
AcDbScale
 70
     0
300
1:4
140
1.0
141
4.0
290
     0
  0
SCALE
  5
4B
102
{ACAD_REACTORS
330
47
102
}
330
47
100
AcDbScale
 70
     0
300
1:5
140
1.0
141
5.0
290
     0
  0
SCALE
  5
4C
102
{ACAD_REACTORS
330
47
102
}
330
47
100
AcDbScale
 70
     0
300
1:8
140
1.0
141
8.0
290
     0
  0
SCALE
  5
4D
102
{ACAD_REACTORS
330
47
102
}
330
47
100
AcDbScale
 70
     0
300
1:10
140
1.0
141
10.0
290
     0
  0
SCALE
  5
4E
102
{ACAD_REACTORS
330
47
102
}
330
47
100
AcDbScale
 70
     0
300
1:16
140
1.0
141
16.0
290
     0
  0
SCALE
  5
4F
102
{ACAD_REACTORS
330
47
102
}
330
47
100
AcDbScale
 70
     0
300
1:20
140
1.0
141
20.0
290
     0
  0
SCALE
  5
50
102
{ACAD_REACTORS
330
47
102
}
330
47
100
AcDbScale
 70
     0
300
1:30
140
1.0
141
30.0
290
     0
  0
SCALE
  5
51
102
{ACAD_REACTORS
330
47
102
}
330
47
100
AcDbScale
 70
     0
300
1:40
140
1.0
141
40.0
290
     0
  0
SCALE
  5
52
102
{ACAD_REACTORS
330
47
102
}
330
47
100
AcDbScale
 70
     0
300
1:50
140
1.0
141
50.0
290
     0
  0
SCALE
  5
53
102
{ACAD_REACTORS
330
47
102
}
330
47
100
AcDbScale
 70
     0
300
1:100
140
1.0
141
100.0
290
     0
  0
SCALE
  5
54
102
{ACAD_REACTORS
330
47
102
}
330
47
100
AcDbScale
 70
     0
300
2:1
140
2.0
141
1.0
290
     0
  0
SCALE
  5
55
102
{ACAD_REACTORS
330
47
102
}
330
47
100
AcDbScale
 70
     0
300
4:1
140
4.0
141
1.0
290
     0
  0
SCALE
  5
56
102
{ACAD_REACTORS
330
47
102
}
330
47
100
AcDbScale
 70
     0
300
8:1
140
8.0
141
1.0
290
     0
  0
SCALE
  5
57
102
{ACAD_REACTORS
330
47
102
}
330
47
100
AcDbScale
 70
     0
300
10:1
140
10.0
141
1.0
290
     0
  0
SCALE
  5
58
102
{ACAD_REACTORS
330
47
102
}
330
47
100
AcDbScale
 70
     0
300
100:1
140
100.0
141
1.0
290
     0
  0
SCALE
  5
59
102
{ACAD_REACTORS
330
47
102
}
330
47
100
AcDbScale
 70
     0
300
1/128" = 1'-0"
140
0.0078125
141
12.0
290
     0
  0
SCALE
  5
5A
102
{ACAD_REACTORS
330
47
102
}
330
47
100
AcDbScale
 70
     0
300
1/64" = 1'-0"
140
0.015625
141
12.0
290
     0
  0
SCALE
  5
5B
102
{ACAD_REACTORS
330
47
102
}
330
47
100
AcDbScale
 70
     0
300
1/32" = 1'-0"
140
0.03125
141
12.0
290
     0
  0
SCALE
  5
5C
102
{ACAD_REACTORS
330
47
102
}
330
47
100
AcDbScale
 70
     0
300
1/16" = 1'-0"
140
0.0625
141
12.0
290
     0
  0
SCALE
  5
5D
102
{ACAD_REACTORS
330
47
102
}
330
47
100
AcDbScale
 70
     0
300
3/32" = 1'-0"
140
0.09375
141
12.0
290
     0
  0
SCALE
  5
5E
102
{ACAD_REACTORS
330
47
102
}
330
47
100
AcDbScale
 70
     0
300
1/8" = 1'-0"
140
0.125
141
12.0
290
     0
  0
SCALE
  5
5F
102
{ACAD_REACTORS
330
47
102
}
330
47
100
AcDbScale
 70
     0
300
3/16" = 1'-0"
140
0.1875
141
12.0
290
     0
  0
SCALE
  5
60
102
{ACAD_REACTORS
330
47
102
}
330
47
100
AcDbScale
 70
     0
300
1/4" = 1'-0"
140
0.25
141
12.0
290
     0
  0
SCALE
  5
61
102
{ACAD_REACTORS
330
47
102
}
330
47
100
AcDbScale
 70
     0
300
3/8" = 1'-0"
140
0.375
141
12.0
290
     0
  0
SCALE
  5
62
102
{ACAD_REACTORS
330
47
102
}
330
47
100
AcDbScale
 70
     0
300
1/2" = 1'-0"
140
0.5
141
12.0
290
     0
  0
SCALE
  5
63
102
{ACAD_REACTORS
330
47
102
}
330
47
100
AcDbScale
 70
     0
300
3/4" = 1'-0"
140
0.75
141
12.0
290
     0
  0
SCALE
  5
64
102
{ACAD_REACTORS
330
47
102
}
330
47
100
AcDbScale
 70
     0
300
1" = 1'-0"
140
1.0
141
12.0
290
     0
  0
SCALE
  5
65
102
{ACAD_REACTORS
330
47
102
}
330
47
100
AcDbScale
 70
     0
300
1-1/2" = 1'-0"
140
1.5
141
12.0
290
     0
  0
SCALE
  5
66
102
{ACAD_REACTORS
330
47
102
}
330
47
100
AcDbScale
 70
     0
300
3" = 1'-0"
140
3.0
141
12.0
290
     0
  0
SCALE
  5
67
102
{ACAD_REACTORS
330
47
102
}
330
47
100
AcDbScale
 70
     0
300
6" = 1'-0"
140
6.0
141
12.0
290
     0
  0
SCALE
  5
68
102
{ACAD_REACTORS
330
47
102
}
330
47
100
AcDbScale
 70
     0
300
1'-0" = 1'-0"
140
12.0
141
12.0
290
     0
  0
ENDSEC
  0
EOF
