  0
SECTION
  2
HEADER
  9
$ACADVER
  1
AC1015
  9
$ACADMAINTVER
 70
     6
  9
$DWGCODEPAGE
  3
ANSI_1251
  9
$INSBASE
 10
0.0
 20
0.0
 30
0.0
  9
$EXTMIN
 10
-49.9413732394
 20
-32.2768779343
 30
0.0
  9
$EXTMAX
 10
40.0586267606
 20
57.7231220657
 30
0.0
  9
$LIMMIN
 10
0.0
 20
0.0
  9
$LIMMAX
 10
420.0
 20
297.0
  9
$ORTHOMODE
 70
     0
  9
$REGENMODE
 70
     1
  9
$FILLMODE
 70
     1
  9
$QTEXTMODE
 70
     0
  9
$MIRRTEXT
 70
     1
  9
$LTSCALE
 40
1.0
  9
$ATTMODE
 70
     1
  9
$TEXTSIZE
 40
4.0
  9
$TRACEWID
 40
1.0
  9
$TEXTSTYLE
  7
Standard
  9
$CLAYER
  8
0
  9
$CELTYPE
  6
ByLayer
  9
$CECOLOR
 62
   256
  9
$CELTSCALE
 40
1.0
  9
$DISPSILH
 70
     0
  9
$DIMSCALE
 40
1.0
  9
$DIMASZ
 40
6.0
  9
$DIMEXO
 40
1.0
  9
$DIMDLI
 40
3.75
  9
$DIMRND
 40
0.0
  9
$DIMDLE
 40
0.0
  9
$DIMEXE
 40
1.0
  9
$DIMTP
 40
0.0
  9
$DIMTM
 40
0.0
  9
$DIMTXT
 40
4.0
  9
$DIMCEN
 40
2.5
  9
$DIMTSZ
 40
0.0
  9
$DIMTOL
 70
     0
  9
$DIMLIM
 70
     0
  9
$DIMTIH
 70
     1
  9
$DIMTOH
 70
     1
  9
$DIMSE1
 70
     0
  9
$DIMSE2
 70
     0
  9
$DIMTAD
 70
     1
  9
$DIMZIN
 70
     0
  9
$DIMBLK
  1

  9
$DIMASO
 70
     1
  9
$DIMSHO
 70
     1
  9
$DIMPOST
  1

  9
$DIMAPOST
  1

  9
$DIMALT
 70
     0
  9
$DIMALTD
 70
     3
  9
$DIMALTF
 40
0.0393700787
  9
$DIMLFAC
 40
1.0
  9
$DIMTOFL
 70
     1
  9
$DIMTVP
 40
0.0
  9
$DIMTIX
 70
     0
  9
$DIMSOXD
 70
     0
  9
$DIMSAH
 70
     0
  9
$DIMBLK1
  1

  9
$DIMBLK2
  1

  9
$DIMSTYLE
  2
ISO-25
  9
$DIMCLRD
 70
     0
  9
$DIMCLRE
 70
     0
  9
$DIMCLRT
 70
     0
  9
$DIMTFAC
 40
1.0
  9
$DIMGAP
 40
3.0
  9
$DIMJUST
 70
     0
  9
$DIMSD1
 70
     0
  9
$DIMSD2
 70
     0
  9
$DIMTOLJ
 70
     0
  9
$DIMTZIN
 70
     0
  9
$DIMALTZ
 70
     0
  9
$DIMALTTZ
 70
     0
  9
$DIMUPT
 70
     0
  9
$DIMDEC
 70
     2
  9
$DIMTDEC
 70
     4
  9
$DIMALTU
 70
     2
  9
$DIMALTTD
 70
     3
  9
$DIMTXSTY
  7
Standard
  9
$DIMAUNIT
 70
     0
  9
$DIMADEC
 70
     2
  9
$DIMALTRND
 40
0.0
  9
$DIMAZIN
 70
     0
  9
$DIMDSEP
 70
    44
  9
$DIMATFIT
 70
     3
  9
$DIMFRAC
 70
     0
  9
$DIMLDRBLK
  1

  9
$DIMLUNIT
 70
     2
  9
$DIMLWD
 70
    -2
  9
$DIMLWE
 70
    -2
  9
$DIMTMOVE
 70
     0
  9
$LUNITS
 70
     2
  9
$LUPREC
 70
     2
  9
$SKETCHINC
 40
1.0
  9
$FILLETRAD
 40
10.0
  9
$AUNITS
 70
     0
  9
$AUPREC
 70
     2
  9
$MENU
  1
.
  9
$ELEVATION
 40
0.0
  9
$PELEVATION
 40
0.0
  9
$THICKNESS
 40
0.0
  9
$LIMCHECK
 70
     0
  9
$CHAMFERA
 40
0.0
  9
$CHAMFERB
 40
0.0
  9
$CHAMFERC
 40
0.0
  9
$CHAMFERD
 40
0.0
  9
$SKPOLY
 70
     0
  9
$TDCREATE
 40
2458523.467452361
  9
$TDUCREATE
 40
2458523.342452361
  9
$TDUPDATE
 40
2458523.467493889
  9
$TDUUPDATE
 40
2458523.342493889
  9
$TDINDWG
 40
0.0000000116
  9
$TDUSRTIMER
 40
0.0000000116
  9
$USRTIMER
 70
     1
  9
$ANGBASE
 50
0.0
  9
$ANGDIR
 70
     0
  9
$PDMODE
 70
     0
  9
$PDSIZE
 40
-1.0
  9
$PLINEWID
 40
0.0
  9
$SPLFRAME
 70
     0
  9
$SPLINETYPE
 70
     6
  9
$SPLINESEGS
 70
     8
  9
$HANDSEED
  5
584
  9
$SURFTAB1
 70
     6
  9
$SURFTAB2
 70
     6
  9
$SURFTYPE
 70
     6
  9
$SURFU
 70
     6
  9
$SURFV
 70
     6
  9
$UCSBASE
  2

  9
$UCSNAME
  2

  9
$UCSORG
 10
0.0
 20
0.0
 30
0.0
  9
$UCSXDIR
 10
1.0
 20
0.0
 30
0.0
  9
$UCSYDIR
 10
0.0
 20
1.0
 30
0.0
  9
$UCSORTHOREF
  2

  9
$UCSORTHOVIEW
 70
     0
  9
$UCSORGTOP
 10
0.0
 20
0.0
 30
0.0
  9
$UCSORGBOTTOM
 10
0.0
 20
0.0
 30
0.0
  9
$UCSORGLEFT
 10
0.0
 20
0.0
 30
0.0
  9
$UCSORGRIGHT
 10
0.0
 20
0.0
 30
0.0
  9
$UCSORGFRONT
 10
0.0
 20
0.0
 30
0.0
  9
$UCSORGBACK
 10
0.0
 20
0.0
 30
0.0
  9
$PUCSBASE
  2

  9
$PUCSNAME
  2

  9
$PUCSORG
 10
0.0
 20
0.0
 30
0.0
  9
$PUCSXDIR
 10
1.0
 20
0.0
 30
0.0
  9
$PUCSYDIR
 10
0.0
 20
1.0
 30
0.0
  9
$PUCSORTHOREF
  2

  9
$PUCSORTHOVIEW
 70
     0
  9
$PUCSORGTOP
 10
0.0
 20
0.0
 30
0.0
  9
$PUCSORGBOTTOM
 10
0.0
 20
0.0
 30
0.0
  9
$PUCSORGLEFT
 10
0.0
 20
0.0
 30
0.0
  9
$PUCSORGRIGHT
 10
0.0
 20
0.0
 30
0.0
  9
$PUCSORGFRONT
 10
0.0
 20
0.0
 30
0.0
  9
$PUCSORGBACK
 10
0.0
 20
0.0
 30
0.0
  9
$USERI1
 70
     0
  9
$USERI2
 70
     0
  9
$USERI3
 70
     0
  9
$USERI4
 70
     0
  9
$USERI5
 70
     0
  9
$USERR1
 40
0.0
  9
$USERR2
 40
0.0
  9
$USERR3
 40
0.0
  9
$USERR4
 40
0.0
  9
$USERR5
 40
0.0
  9
$WORLDVIEW
 70
     1
  9
$SHADEDGE
 70
     3
  9
$SHADEDIF
 70
    70
  9
$TILEMODE
 70
     1
  9
$MAXACTVP
 70
    64
  9
$PINSBASE
 10
0.0
 20
0.0
 30
0.0
  9
$PLIMCHECK
 70
     0
  9
$PEXTMIN
 10
1.0000000000E+20
 20
1.0000000000E+20
 30
1.0000000000E+20
  9
$PEXTMAX
 10
-1.0000000000E+20
 20
-1.0000000000E+20
 30
-1.0000000000E+20
  9
$PLIMMIN
 10
0.0
 20
0.0
  9
$PLIMMAX
 10
420.0
 20
297.0
  9
$UNITMODE
 70
     0
  9
$VISRETAIN
 70
     1
  9
$PLINEGEN
 70
     0
  9
$PSLTSCALE
 70
     1
  9
$TREEDEPTH
 70
  3020
  9
$CMLSTYLE
  2
Standard
  9
$CMLJUST
 70
     0
  9
$CMLSCALE
 40
20.0
  9
$PROXYGRAPHICS
 70
     1
  9
$MEASUREMENT
 70
     1
  9
$CELWEIGHT
370
    -1
  9
$ENDCAPS
280
     0
  9
$JOINSTYLE
280
     0
  9
$LWDISPLAY
290
     1
  9
$INSUNITS
 70
     4
  9
$HYPERLINKBASE
  1

  9
$STYLESHEET
  1

  9
$XEDIT
290
     1
  9
$CEPSNTYPE
380
     0
  9
$PSTYLEMODE
290
     1
  9
$FINGERPRINTGUID
  2
{6dce7b5e-c662-45c2-9e14-9e6e865e5c3c}
  9
$VERSIONGUID
  2
{FAEB1C32-E019-11D5-929B-00C0DF256EC4}
  9
$EXTNAMES
290
     1
  9
$PSVPSCALE
 40
0.0
  9
$OLESTARTUP
290
     0
  0
ENDSEC
  0
SECTION
  2
CLASSES
  0
CLASS
  1
ACDBDICTIONARYWDFLT
  2
AcDbDictionaryWithDefault
  3
ObjectDBX Classes
 90
        0
280
     0
281
     0
  0
CLASS
  1
VISUALSTYLE
  2
AcDbVisualStyle
  3
ObjectDBX Classes
 90
     4095
280
     0
281
     0
  0
CLASS
  1
MATERIAL
  2
AcDbMaterial
  3
ObjectDBX Classes
 90
     1153
280
     0
281
     0
  0
CLASS
  1
SCALE
  2
AcDbScale
  3
ObjectDBX Classes
 90
     1153
280
     0
281
     0
  0
CLASS
  1
TABLESTYLE
  2
AcDbTableStyle
  3
ObjectDBX Classes
 90
     4095
280
     0
281
     0
  0
CLASS
  1
MLEADERSTYLE
  2
AcDbMLeaderStyle
  3
ACDB_MLEADERSTYLE_CLASS
 90
     4095
280
     0
281
     0
  0
CLASS
  1
SUN
  2
AcDbSun
  3
SCENEOE
 90
     1153
280
     0
281
     0
  0
CLASS
  1
ACDBPLACEHOLDER
  2
AcDbPlaceHolder
  3
ObjectDBX Classes
 90
        0
280
     0
281
     0
  0
CLASS
  1
LAYOUT
  2
AcDbLayout
  3
ObjectDBX Classes
 90
        0
280
     0
281
     0
  0
ENDSEC
  0
SECTION
  2
TABLES
  0
TABLE
  2
VPORT
  5
8
330
0
100
AcDbSymbolTable
 70
     1
  0
VPORT
  5
29
330
8
100
AcDbSymbolTableRecord
100
AcDbViewportTableRecord
  2
*Active
 70
     0
 10
0.0
 20
0.0
 11
1.0
 21
1.0
 12
-4.9413732394
 22
12.7231220657
 13
0.0
 23
0.0
 14
10.0
 24
10.0
 15
10.0
 25
10.0
 16
0.0
 26
0.0
 36
1.0
 17
0.0
 27
0.0
 37
0.0
 40
91.8
 41
1.0
 42
50.0
 43
0.0
 44
0.0
 50
0.0
 51
0.0
 71
     0
 72
   100
 73
     1
 74
     3
 75
     0
 76
     0
 77
     0
 78
     0
281
     0
 65
     1
110
0.0
120
0.0
130
0.0
111
1.0
121
0.0
131
0.0
112
0.0
122
1.0
132
0.0
 79
     0
146
0.0
  0
ENDTAB
  0
TABLE
  2
LTYPE
  5
5
330
0
100
AcDbSymbolTable
 70
     6
  0
LTYPE
  5
14
330
5
100
AcDbSymbolTableRecord
100
AcDbLinetypeTableRecord
  2
ByBlock
 70
     0
  3

 72
    65
 73
     0
 40
0.0
  0
LTYPE
  5
15
330
5
100
AcDbSymbolTableRecord
100
AcDbLinetypeTableRecord
  2
ByLayer
 70
     0
  3

 72
    65
 73
     0
 40
0.0
  0
LTYPE
  5
16
330
5
100
AcDbSymbolTableRecord
100
AcDbLinetypeTableRecord
  2
Continuous
 70
     0
  3
Solid line
 72
    65
 73
     0
 40
0.0
  0
LTYPE
  5
6E
330
5
100
AcDbSymbolTableRecord
100
AcDbLinetypeTableRecord
  2
HIDDEN
 70
     0
  3
Hidden __ __ __ __ __ __ __ __ __ __ __ __ __ __
 72
    65
 73
     2
 40
1.905
 49
1.27
 74
     0
 49
-0.635
 74
     0
  0
LTYPE
  5
6F
330
5
100
AcDbSymbolTableRecord
100
AcDbLinetypeTableRecord
  2
PHANTOM
 70
     0
  3
Phantom ______  __  __  ______  __  __  ______
 72
    65
 73
     6
 40
12.7
 49
6.35
 74
     0
 49
-1.27
 74
     0
 49
1.27
 74
     0
 49
-1.27
 74
     0
 49
1.27
 74
     0
 49
-1.27
 74
     0
  0
LTYPE
  5
70
330
5
100
AcDbSymbolTableRecord
100
AcDbLinetypeTableRecord
  2
CENTER
 70
     0
  3
Center ____ _ ____ _ ____ _ ____ _ ____ _ ____
 72
    65
 73
     4
 40
10.16
 49
6.35
 74
     0
 49
-1.27
 74
     0
 49
1.27
 74
     0
 49
-1.27
 74
     0
  0
LTYPE
  5
71
330
5
100
AcDbSymbolTableRecord
100
AcDbLinetypeTableRecord
  2
CENTERX2
 70
     0
  3
Center (2x) ________  __  ________  __  _____
 72
    65
 73
     4
 40
20.32
 49
12.7
 74
     0
 49
-2.54
 74
     0
 49
2.54
 74
     0
 49
-2.54
 74
     0
  0
LTYPE
  5
72
330
5
100
AcDbSymbolTableRecord
100
AcDbLinetypeTableRecord
  2
DOT2
 70
     0
  3
Dot (.5x) ........................................
 72
    65
 73
     2
 40
0.635
 49
0.0
 74
     0
 49
-0.635
 74
     0
  0
ENDTAB
  0
TABLE
  2
LAYER
  5
2
330
0
100
AcDbSymbolTable
 70
     1
  0
LAYER
  5
10
330
2
100
AcDbSymbolTableRecord
100
AcDbLayerTableRecord
  2
0
 70
     0
 62
     7
  6
Continuous
370
    -3
390
F
  0
ENDTAB
  0
TABLE
  2
STYLE
  5
3
330
0
100
AcDbSymbolTable
 70
     1
  0
STYLE
  5
11
330
3
100
AcDbSymbolTableRecord
100
AcDbTextStyleTableRecord
  2
Standard
 70
     0
 40
0.0
 41
1.0
 50
0.0
 71
     0
 42
4.0
  3
txt
  4

  0
ENDTAB
  0
TABLE
  2
VIEW
  5
6
330
0
100
AcDbSymbolTable
 70
     0
  0
ENDTAB
  0
TABLE
  2
UCS
  5
7
330
0
100
AcDbSymbolTable
 70
     0
  0
ENDTAB
  0
TABLE
  2
APPID
  5
9
330
0
100
AcDbSymbolTable
 70
     1
  0
APPID
  5
12
330
9
100
AcDbSymbolTableRecord
100
AcDbRegAppTableRecord
  2
ACAD
 70
     0
  0
ENDTAB
  0
TABLE
  2
DIMSTYLE
  5
A
330
0
100
AcDbSymbolTable
 70
     1
100
AcDbDimStyleTable
  0
DIMSTYLE
105
27
330
A
100
AcDbSymbolTableRecord
100
AcDbDimStyleTableRecord
  2
ISO-25
 70
     0
 41
2.5
 42
0.625
 43
3.75
 44
1.25
 73
     0
 74
     0
 77
     1
 78
     8
140
2.5
141
2.5
143
0.0393700787
147
0.625
171
     3
172
     1
178
     0
271
     2
272
     2
274
     3
278
    44
283
     0
284
     8
340
11
  0
ENDTAB
  0
TABLE
  2
BLOCK_RECORD
  5
1
330
0
100
AcDbSymbolTable
 70
     1
  0
BLOCK_RECORD
  5
1F
330
1
100
AcDbSymbolTableRecord
100
AcDbBlockTableRecord
  2
*Model_Space
340
22
  0
BLOCK_RECORD
  5
1B
330
1
100
AcDbSymbolTableRecord
100
AcDbBlockTableRecord
  2
*Paper_Space
340
1E
  0
BLOCK_RECORD
  5
23
330
1
100
AcDbSymbolTableRecord
100
AcDbBlockTableRecord
  2
*Paper_Space0
340
26
  0
ENDTAB
  0
ENDSEC
  0
SECTION
  2
BLOCKS
  0
BLOCK
  5
20
330
1F
100
AcDbEntity
  8
0
100
AcDbBlockBegin
  2
*Model_Space
 70
     0
 10
0.0
 20
0.0
 30
0.0
  3
*Model_Space
  1

  0
ENDBLK
  5
21
330
1F
100
AcDbEntity
  8
0
100
AcDbBlockEnd
  0
BLOCK
  5
1C
330
1B
100
AcDbEntity
 67
     1
  8
0
100
AcDbBlockBegin
  2
*Paper_Space
 70
     0
 10
0.0
 20
0.0
 30
0.0
  3
*Paper_Space
  1

  0
ENDBLK
  5
1D
330
1B
100
AcDbEntity
 67
     1
  8
0
100
AcDbBlockEnd
  0
BLOCK
  5
24
330
23
100
AcDbEntity
  8
0
100
AcDbBlockBegin
  2
*Paper_Space0
 70
     0
 10
0.0
 20
0.0
 30
0.0
  3
*Paper_Space0
  1

  0
ENDBLK
  5
25
330
23
100
AcDbEntity
  8
0
100
AcDbBlockEnd
  0
ENDSEC
  0
SECTION
  2
ENTITIES
  0
CIRCLE
  5
7E
330
1F
100
AcDbEntity
  8
0
  6
Continuous
 62
     7
370
    25
100
AcDbCircle
 10
-4.9413732394
 20
12.7231220657
 30
0.0
 40
19.49999999999996
  0
LINE
  5
2FC
330
1F
100
AcDbEntity
  8
0
  6
Continuous
 62
     7
370
    25
100
AcDbLine
 10
-24.5734910577
 20
-13.8726381557
 30
0.0
 11
-23.9425569777
 21
-14.7737054044
 31
0.0
  0
LINE
  5
2FD
330
1F
100
AcDbEntity
  8
0
  6
Continuous
 62
     7
370
    25
100
AcDbLine
 10
29.7638573495
 20
-26.1018779343
 30
0.0
 11
29.7086267606
 21
-26.1018779343
 31
0.0
  0
LINE
  5
2FE
330
1F
100
AcDbEntity
  8
0
  6
Continuous
 62
     7
370
    25
100
AcDbLine
 10
33.8836267606
 20
47.4283526547
 30
0.0
 11
33.8836267606
 21
47.3731220657
 31
0.0
  0
LINE
  5
2FF
330
1F
100
AcDbEntity
  8
0
  6
Continuous
 62
     7
370
    25
100
AcDbLine
 10
-31.5371334609
 20
32.355239884
 30
0.0
 11
-32.4382007096
 21
31.724305804
 31
0.0
  0
LINE
  5
300
330
1F
100
AcDbEntity
  8
0
  6
Continuous
 62
     7
370
    25
100
AcDbLine
 10
-49.9413732394
 20
28.8231220657
 30
0.0
 11
-49.9413732394
 21
21.7231220657
 31
0.0
  0
LINE
  5
301
330
1F
100
AcDbEntity
  8
0
  6
Continuous
 62
     7
370
    25
100
AcDbLine
 10
-19.740892806
 20
-8.8477896927
 30
0.0
 11
-19.740892806
 21
-5.6772382495
 31
0.0
  0
LINE
  5
302
330
1F
100
AcDbEntity
  8
0
  6
Continuous
 62
     7
370
    25
100
AcDbLine
 10
-20.0556143159
 20
-9.5268779343
 30
0.0
 11
-19.8078801041
 21
-9.0977896927
 31
0.0
  0
LINE
  5
303
330
1F
100
AcDbEntity
  8
0
  6
Continuous
 62
     7
370
    25
100
AcDbLine
 10
-20.0556143159
 20
-10.0268779343
 30
0.0
 11
-19.8078801041
 21
-10.4559661759
 31
0.0
  0
LINE
  5
304
330
1F
100
AcDbEntity
  8
0
  6
Continuous
 62
     7
370
    25
100
AcDbLine
 10
-19.740892806
 20
-10.7059661759
 30
0.0
 11
-19.740892806
 21
-14.9418244618
 31
0.0
  0
LINE
  5
305
330
1F
100
AcDbEntity
  8
0
  6
Continuous
 62
     7
370
    25
100
AcDbLine
 10
-19.4479995872
 20
-15.648931243
 30
0.0
 11
-15.2378198488
 21
-19.8591109813
 31
0.0
  0
LINE
  5
306
330
1F
100
AcDbEntity
  8
0
  6
Continuous
 62
     7
370
    25
100
AcDbLine
 10
-15.0913732394
 20
-26.1438416111
 30
0.0
 11
-15.0913732394
 21
-20.2126643719
 31
0.0
  0
LINE
  5
307
330
1F
100
AcDbEntity
  8
0
  6
Continuous
 62
     7
370
    25
100
AcDbLine
 10
5.2086267606
 20
-26.1438416111
 30
0.0
 11
5.2086267606
 21
-20.2126643719
 31
0.0
  0
LINE
  5
308
330
1F
100
AcDbEntity
  8
0
  6
Continuous
 62
     7
370
    25
100
AcDbLine
 10
5.35507337
 20
-19.8591109813
 30
0.0
 11
9.5652531083
 21
-15.648931243
 31
0.0
  0
LINE
  5
309
330
1F
100
AcDbEntity
  8
0
  6
Continuous
 62
     7
370
    25
100
AcDbLine
 10
9.8581463271
 20
-10.7059661759
 30
0.0
 11
9.8581463271
 21
-14.9418244618
 31
0.0
  0
LINE
  5
30A
330
1F
100
AcDbEntity
  8
0
  6
Continuous
 62
     7
370
    25
100
AcDbLine
 10
10.172867837
 20
-10.0268779343
 30
0.0
 11
9.9251336252
 21
-10.4559661759
 31
0.0
  0
LINE
  5
30B
330
1F
100
AcDbEntity
  8
0
  6
Continuous
 62
     7
370
    25
100
AcDbLine
 10
10.172867837
 20
-9.5268779343
 30
0.0
 11
9.9251336252
 21
-9.0977896927
 31
0.0
  0
LINE
  5
30C
330
1F
100
AcDbEntity
  8
0
  6
Continuous
 62
     7
370
    25
100
AcDbLine
 10
9.8581463271
 20
-8.8477896927
 30
0.0
 11
9.8581463271
 21
-5.6772382496
 31
0.0
  0
LINE
  5
30D
330
1F
100
AcDbEntity
  8
0
  6
Continuous
 62
     7
370
    25
100
AcDbLine
 10
-47.8861426505
 20
-26.1018779343
 30
0.0
 11
-47.9413732394
 21
-26.1018779343
 31
0.0
  0
LINE
  5
30E
330
1F
100
AcDbEntity
  8
0
  6
Continuous
 62
     7
370
    25
100
AcDbLine
 10
-43.7663732394
 20
-30.2216473453
 30
0.0
 11
-43.7663732394
 21
-30.2768779343
 31
0.0
  0
LINE
  5
30F
330
1F
100
AcDbEntity
  8
0
  6
Continuous
 62
     7
370
    25
100
AcDbLine
 10
-43.2663732394
 20
-30.7768779343
 30
0.0
 11
-36.249324313
 21
-30.7768779343
 31
0.0
  0
LINE
  5
310
330
1F
100
AcDbEntity
  8
0
  6
Continuous
 62
     7
370
    25
100
AcDbLine
 10
-38.0913732394
 20
-27.7768779343
 30
0.0
 11
-36.249324313
 21
-27.7768779343
 31
0.0
  0
LINE
  5
311
330
1F
100
AcDbEntity
  8
0
  6
Continuous
 62
     7
370
    25
100
AcDbLine
 10
-39.0913732394
 20
-26.6018779343
 30
0.0
 11
-39.0913732394
 21
-26.7768779343
 31
0.0
  0
LINE
  5
312
330
1F
100
AcDbEntity
  8
0
  6
Continuous
 62
     7
370
    25
100
AcDbLine
 10
-39.6466038284
 20
-26.1018779343
 30
0.0
 11
-39.5913732394
 21
-26.1018779343
 31
0.0
  0
LINE
  5
313
330
1F
100
AcDbEntity
  8
0
  6
Continuous
 62
     7
370
    25
100
AcDbLine
 10
-43.7663732394
 20
-21.9821085232
 30
0.0
 11
-43.7663732394
 21
-21.9268779343
 31
0.0
  0
LINE
  5
314
330
1F
100
AcDbEntity
  8
0
  6
Continuous
 62
     7
370
    25
100
AcDbLine
 10
-44.2663732394
 20
-21.4268779343
 30
0.0
 11
-44.4413732394
 21
-21.4268779343
 31
0.0
  0
LINE
  5
315
330
1F
100
AcDbEntity
  8
0
  6
Continuous
 62
     7
370
    25
100
AcDbLine
 10
-45.4413732394
 20
-20.4268779343
 30
0.0
 11
-45.4413732394
 21
-18.5848290078
 31
0.0
  0
LINE
  5
316
330
1F
100
AcDbEntity
  8
0
  6
Continuous
 62
     7
370
    25
100
AcDbLine
 10
-48.4413732394
 20
-25.6018779343
 30
0.0
 11
-48.4413732394
 21
-18.5848290078
 31
0.0
  0
LINE
  5
317
330
1F
100
AcDbEntity
  8
0
  6
Continuous
 62
     7
370
    25
100
AcDbLine
 10
-23.345613018
 20
-12.644760116
 30
0.0
 11
-22.4445457693
 21
-13.275694196
 31
0.0
  0
LINE
  5
318
330
1F
100
AcDbEntity
  8
0
  6
Continuous
 62
     7
370
    25
100
AcDbLine
 10
-22.5173344744
 20
-10.6451188226
 30
0.0
 11
-21.4340459461
 21
-10.836131818
 31
0.0
  0
LINE
  5
319
330
1F
100
AcDbEntity
  8
0
  6
Continuous
 62
     7
370
    25
100
AcDbLine
 10
-22.5173344744
 20
-8.9086370459
 30
0.0
 11
-21.4340459461
 21
-8.7176240505
 31
0.0
  0
LINE
  5
31A
330
1F
100
AcDbEntity
  8
0
  6
Continuous
 62
     7
370
    25
100
AcDbLine
 10
-23.345613018
 20
-6.9089957525
 30
0.0
 11
-22.4445457693
 21
-6.2780616725
 31
0.0
  0
LINE
  5
31B
330
1F
100
AcDbEntity
  8
0
  6
Continuous
 62
     7
370
    25
100
AcDbLine
 10
-24.5734910577
 20
-5.6811177128
 30
0.0
 11
-23.9425569777
 21
-4.7800504641
 31
0.0
  0
LINE
  5
31C
330
1F
100
AcDbEntity
  8
0
  6
Continuous
 62
     7
370
    25
100
AcDbLine
 10
-26.5731323511
 20
-4.8528391692
 30
0.0
 11
-26.3821193557
 21
-3.7695506409
 31
0.0
  0
LINE
  5
31D
330
1F
100
AcDbEntity
  8
0
  6
Continuous
 62
     7
370
    25
100
AcDbLine
 10
-28.3096141278
 20
-4.8528391692
 30
0.0
 11
-28.5006271232
 21
-3.7695506409
 31
0.0
  0
LINE
  5
31E
330
1F
100
AcDbEntity
  8
0
  6
Continuous
 62
     7
370
    25
100
AcDbLine
 10
-30.3092554212
 20
-5.6811177128
 30
0.0
 11
-30.9401895012
 21
-4.7800504641
 31
0.0
  0
LINE
  5
31F
330
1F
100
AcDbEntity
  8
0
  6
Continuous
 62
     7
370
    25
100
AcDbLine
 10
-31.5371334609
 20
-6.9089957525
 30
0.0
 11
-32.4382007096
 21
-6.2780616725
 31
0.0
  0
LINE
  5
320
330
1F
100
AcDbEntity
  8
0
  6
Continuous
 62
     7
370
    25
100
AcDbLine
 10
-32.3654120045
 20
-8.9086370459
 30
0.0
 11
-33.4487005328
 21
-8.7176240505
 31
0.0
  0
LINE
  5
321
330
1F
100
AcDbEntity
  8
0
  6
Continuous
 62
     7
370
    25
100
AcDbLine
 10
-32.3654120045
 20
-10.6451188226
 30
0.0
 11
-33.4487005328
 21
-10.836131818
 31
0.0
  0
LINE
  5
322
330
1F
100
AcDbEntity
  8
0
  6
Continuous
 62
     7
370
    25
100
AcDbLine
 10
-31.5371334609
 20
-12.644760116
 30
0.0
 11
-32.4382007096
 21
-13.275694196
 31
0.0
  0
LINE
  5
323
330
1F
100
AcDbEntity
  8
0
  6
Continuous
 62
     7
370
    25
100
AcDbLine
 10
-30.3092554212
 20
-13.8726381557
 30
0.0
 11
-30.9401895012
 21
-14.7737054044
 31
0.0
  0
LINE
  5
324
330
1F
100
AcDbEntity
  8
0
  6
Continuous
 62
     7
370
    25
100
AcDbLine
 10
-28.3096141278
 20
-14.7009166993
 30
0.0
 11
-28.5006271232
 21
-15.7842052276
 31
0.0
  0
LINE
  5
325
330
1F
100
AcDbEntity
  8
0
  6
Continuous
 62
     7
370
    25
100
AcDbLine
 10
-26.5731323511
 20
-14.7009166993
 30
0.0
 11
-26.3821193557
 21
-15.7842052276
 31
0.0
  0
LINE
  5
326
330
1F
100
AcDbEntity
  8
0
  6
Continuous
 62
     7
370
    25
100
AcDbLine
 10
29.2086267606
 20
-26.6018779343
 30
0.0
 11
29.2086267606
 21
-26.7768779343
 31
0.0
  0
LINE
  5
327
330
1F
100
AcDbEntity
  8
0
  6
Continuous
 62
     7
370
    25
100
AcDbLine
 10
28.2086267606
 20
-27.7768779343
 30
0.0
 11
26.3665778341
 21
-27.7768779343
 31
0.0
  0
LINE
  5
328
330
1F
100
AcDbEntity
  8
0
  6
Continuous
 62
     7
370
    25
100
AcDbLine
 10
33.3836267606
 20
-30.7768779343
 30
0.0
 11
26.3665778341
 21
-30.7768779343
 31
0.0
  0
LINE
  5
329
330
1F
100
AcDbEntity
  8
0
  6
Continuous
 62
     7
370
    25
100
AcDbLine
 10
33.8836267606
 20
-30.2216473453
 30
0.0
 11
33.8836267606
 21
-30.2768779343
 31
0.0
  0
LINE
  5
32A
330
1F
100
AcDbEntity
  8
0
  6
Continuous
 62
     7
370
    25
100
AcDbLine
 10
38.0033961716
 20
-26.1018779343
 30
0.0
 11
38.0586267606
 21
-26.1018779343
 31
0.0
  0
LINE
  5
32B
330
1F
100
AcDbEntity
  8
0
  6
Continuous
 62
     7
370
    25
100
AcDbLine
 10
38.5586267606
 20
-25.6018779343
 30
0.0
 11
38.5586267606
 21
-18.5848290078
 31
0.0
  0
LINE
  5
32C
330
1F
100
AcDbEntity
  8
0
  6
Continuous
 62
     7
370
    25
100
AcDbLine
 10
35.5586267606
 20
-20.4268779343
 30
0.0
 11
35.5586267606
 21
-18.5848290078
 31
0.0
  0
LINE
  5
32D
330
1F
100
AcDbEntity
  8
0
  6
Continuous
 62
     7
370
    25
100
AcDbLine
 10
34.3836267606
 20
-21.4268779343
 30
0.0
 11
34.5586267606
 21
-21.4268779343
 31
0.0
  0
LINE
  5
32E
330
1F
100
AcDbEntity
  8
0
  6
Continuous
 62
     7
370
    25
100
AcDbLine
 10
33.8836267606
 20
-21.9821085232
 30
0.0
 11
33.8836267606
 21
-21.9268779343
 31
0.0
  0
LINE
  5
32F
330
1F
100
AcDbEntity
  8
0
  6
Continuous
 62
     7
370
    25
100
AcDbLine
 10
34.3836267606
 20
46.8731220657
 30
0.0
 11
34.5586267606
 21
46.8731220657
 31
0.0
  0
LINE
  5
330
330
1F
100
AcDbEntity
  8
0
  6
Continuous
 62
     7
370
    25
100
AcDbLine
 10
35.5586267606
 20
45.8731220657
 30
0.0
 11
35.5586267606
 21
44.0310731393
 31
0.0
  0
LINE
  5
331
330
1F
100
AcDbEntity
  8
0
  6
Continuous
 62
     7
370
    25
100
AcDbLine
 10
38.5586267606
 20
51.0481220657
 30
0.0
 11
38.5586267606
 21
44.0310731393
 31
0.0
  0
LINE
  5
332
330
1F
100
AcDbEntity
  8
0
  6
Continuous
 62
     7
370
    25
100
AcDbLine
 10
38.0033961716
 20
51.5481220657
 30
0.0
 11
38.0586267606
 21
51.5481220657
 31
0.0
  0
LINE
  5
333
330
1F
100
AcDbEntity
  8
0
  6
Continuous
 62
     7
370
    25
100
AcDbLine
 10
33.8836267606
 20
55.6678914767
 30
0.0
 11
33.8836267606
 21
55.7231220657
 31
0.0
  0
LINE
  5
334
330
1F
100
AcDbEntity
  8
0
  6
Continuous
 62
     7
370
    25
100
AcDbLine
 10
33.3836267606
 20
56.2231220657
 30
0.0
 11
26.3665778341
 21
56.2231220657
 31
0.0
  0
LINE
  5
335
330
1F
100
AcDbEntity
  8
0
  6
Continuous
 62
     7
370
    25
100
AcDbLine
 10
28.2086267606
 20
53.2231220657
 30
0.0
 11
26.3665778341
 21
53.2231220657
 31
0.0
  0
LINE
  5
336
330
1F
100
AcDbEntity
  8
0
  6
Continuous
 62
     7
370
    25
100
AcDbLine
 10
29.2086267606
 20
52.0481220657
 30
0.0
 11
29.2086267606
 21
52.2231220657
 31
0.0
  0
LINE
  5
337
330
1F
100
AcDbEntity
  8
0
  6
Continuous
 62
     7
370
    25
100
AcDbLine
 10
29.7638573495
 20
51.5481220657
 30
0.0
 11
29.7086267606
 21
51.5481220657
 31
0.0
  0
LINE
  5
338
330
1F
100
AcDbEntity
  8
0
  6
Continuous
 62
     7
370
    25
100
AcDbLine
 10
-30.3092554212
 20
31.1273618443
 30
0.0
 11
-30.9401895012
 21
30.2262945956
 31
0.0
  0
LINE
  5
339
330
1F
100
AcDbEntity
  8
0
  6
Continuous
 62
     7
370
    25
100
AcDbLine
 10
-28.3096141278
 20
30.2990833007
 30
0.0
 11
-28.5006271232
 21
29.2157947724
 31
0.0
  0
LINE
  5
33A
330
1F
100
AcDbEntity
  8
0
  6
Continuous
 62
     7
370
    25
100
AcDbLine
 10
-26.5731323511
 20
30.2990833007
 30
0.0
 11
-26.3821193557
 21
29.2157947724
 31
0.0
  0
LINE
  5
33B
330
1F
100
AcDbEntity
  8
0
  6
Continuous
 62
     7
370
    25
100
AcDbLine
 10
-24.5734910577
 20
31.1273618443
 30
0.0
 11
-23.9425569777
 21
30.2262945956
 31
0.0
  0
LINE
  5
33C
330
1F
100
AcDbEntity
  8
0
  6
Continuous
 62
     7
370
    25
100
AcDbLine
 10
-23.345613018
 20
32.355239884
 30
0.0
 11
-22.4445457693
 21
31.724305804
 31
0.0
  0
LINE
  5
33D
330
1F
100
AcDbEntity
  8
0
  6
Continuous
 62
     7
370
    25
100
AcDbLine
 10
-22.5173344744
 20
34.3548811774
 30
0.0
 11
-21.4340459461
 21
34.163868182
 31
0.0
  0
LINE
  5
33E
330
1F
100
AcDbEntity
  8
0
  6
Continuous
 62
     7
370
    25
100
AcDbLine
 10
-22.5173344744
 20
36.0913629541
 30
0.0
 11
-21.4340459461
 21
36.2823759495
 31
0.0
  0
LINE
  5
33F
330
1F
100
AcDbEntity
  8
0
  6
Continuous
 62
     7
370
    25
100
AcDbLine
 10
-23.345613018
 20
38.0910042475
 30
0.0
 11
-22.4445457693
 21
38.7219383275
 31
0.0
  0
LINE
  5
340
330
1F
100
AcDbEntity
  8
0
  6
Continuous
 62
     7
370
    25
100
AcDbLine
 10
-24.5734910577
 20
39.3188822872
 30
0.0
 11
-23.9425569777
 21
40.2199495359
 31
0.0
  0
LINE
  5
341
330
1F
100
AcDbEntity
  8
0
  6
Continuous
 62
     7
370
    25
100
AcDbLine
 10
-26.5731323511
 20
40.1471608308
 30
0.0
 11
-26.3821193557
 21
41.2304493591
 31
0.0
  0
LINE
  5
342
330
1F
100
AcDbEntity
  8
0
  6
Continuous
 62
     7
370
    25
100
AcDbLine
 10
-28.3096141278
 20
40.1471608308
 30
0.0
 11
-28.5006271232
 21
41.2304493591
 31
0.0
  0
LINE
  5
343
330
1F
100
AcDbEntity
  8
0
  6
Continuous
 62
     7
370
    25
100
AcDbLine
 10
-30.3092554212
 20
39.3188822872
 30
0.0
 11
-30.9401895012
 21
40.2199495359
 31
0.0
  0
LINE
  5
344
330
1F
100
AcDbEntity
  8
0
  6
Continuous
 62
     7
370
    25
100
AcDbLine
 10
-31.5371334609
 20
38.0910042475
 30
0.0
 11
-32.4382007096
 21
38.7219383275
 31
0.0
  0
LINE
  5
345
330
1F
100
AcDbEntity
  8
0
  6
Continuous
 62
     7
370
    25
100
AcDbLine
 10
-32.3654120045
 20
36.0913629541
 30
0.0
 11
-33.4487005328
 21
36.2823759495
 31
0.0
  0
LINE
  5
346
330
1F
100
AcDbEntity
  8
0
  6
Continuous
 62
     7
370
    25
100
AcDbLine
 10
-32.3654120045
 20
34.3548811774
 30
0.0
 11
-33.4487005328
 21
34.163868182
 31
0.0
  0
LINE
  5
347
330
1F
100
AcDbEntity
  8
0
  6
Continuous
 62
     7
370
    25
100
AcDbLine
 10
-43.7663732394
 20
55.6678914768
 30
0.0
 11
-43.7663732394
 21
55.7231220657
 31
0.0
  0
LINE
  5
348
330
1F
100
AcDbEntity
  8
0
  6
Continuous
 62
     7
370
    25
100
AcDbLine
 10
-47.8861426505
 20
51.5481220657
 30
0.0
 11
-47.9413732394
 21
51.5481220657
 31
0.0
  0
LINE
  5
349
330
1F
100
AcDbEntity
  8
0
  6
Continuous
 62
     7
370
    25
100
AcDbLine
 10
-48.4413732394
 20
51.0481220657
 30
0.0
 11
-48.4413732394
 21
44.0310731393
 31
0.0
  0
LINE
  5
34A
330
1F
100
AcDbEntity
  8
0
  6
Continuous
 62
     7
370
    25
100
AcDbLine
 10
-45.4413732394
 20
45.8731220657
 30
0.0
 11
-45.4413732394
 21
44.0310731393
 31
0.0
  0
LINE
  5
34B
330
1F
100
AcDbEntity
  8
0
  6
Continuous
 62
     7
370
    25
100
AcDbLine
 10
-44.2663732394
 20
46.8731220657
 30
0.0
 11
-44.4413732394
 21
46.8731220657
 31
0.0
  0
LINE
  5
34C
330
1F
100
AcDbEntity
  8
0
  6
Continuous
 62
     7
370
    25
100
AcDbLine
 10
-43.7663732394
 20
47.4283526547
 30
0.0
 11
-43.7663732394
 21
47.3731220657
 31
0.0
  0
LINE
  5
34D
330
1F
100
AcDbEntity
  8
0
  6
Continuous
 62
     7
370
    25
100
AcDbLine
 10
-39.6466038284
 20
51.5481220657
 30
0.0
 11
-39.5913732394
 21
51.5481220657
 31
0.0
  0
LINE
  5
34E
330
1F
100
AcDbEntity
  8
0
  6
Continuous
 62
     7
370
    25
100
AcDbLine
 10
-39.0913732394
 20
52.0481220657
 30
0.0
 11
-39.0913732394
 21
52.2231220657
 31
0.0
  0
LINE
  5
34F
330
1F
100
AcDbEntity
  8
0
  6
Continuous
 62
     7
370
    25
100
AcDbLine
 10
-38.0913732394
 20
53.2231220657
 30
0.0
 11
-36.249324313
 21
53.2231220657
 31
0.0
  0
LINE
  5
350
330
1F
100
AcDbEntity
  8
0
  6
Continuous
 62
     7
370
    25
100
AcDbLine
 10
-43.2663732394
 20
56.2231220657
 30
0.0
 11
-36.249324313
 21
56.2231220657
 31
0.0
  0
LINE
  5
351
330
1F
100
AcDbEntity
  8
0
  6
Continuous
 62
     7
370
    25
100
AcDbLine
 10
18.4268676489
 20
40.1471608308
 30
0.0
 11
18.6178806443
 21
41.2304493591
 31
0.0
  0
LINE
  5
352
330
1F
100
AcDbEntity
  8
0
  6
Continuous
 62
     7
370
    25
100
AcDbLine
 10
16.6903858722
 20
40.1471608308
 30
0.0
 11
16.4993728768
 21
41.2304493591
 31
0.0
  0
LINE
  5
353
330
1F
100
AcDbEntity
  8
0
  6
Continuous
 62
     7
370
    25
100
AcDbLine
 10
14.6907445788
 20
39.3188822872
 30
0.0
 11
14.0598104988
 21
40.2199495359
 31
0.0
  0
LINE
  5
354
330
1F
100
AcDbEntity
  8
0
  6
Continuous
 62
     7
370
    25
100
AcDbLine
 10
13.4628665391
 20
38.0910042475
 30
0.0
 11
12.5617992904
 21
38.7219383275
 31
0.0
  0
LINE
  5
355
330
1F
100
AcDbEntity
  8
0
  6
Continuous
 62
     7
370
    25
100
AcDbLine
 10
12.6345879955
 20
36.0913629541
 30
0.0
 11
11.5512994672
 21
36.2823759495
 31
0.0
  0
LINE
  5
356
330
1F
100
AcDbEntity
  8
0
  6
Continuous
 62
     7
370
    25
100
AcDbLine
 10
12.6345879955
 20
34.3548811774
 30
0.0
 11
11.5512994672
 21
34.163868182
 31
0.0
  0
LINE
  5
357
330
1F
100
AcDbEntity
  8
0
  6
Continuous
 62
     7
370
    25
100
AcDbLine
 10
13.4628665391
 20
32.355239884
 30
0.0
 11
12.5617992904
 21
31.724305804
 31
0.0
  0
LINE
  5
358
330
1F
100
AcDbEntity
  8
0
  6
Continuous
 62
     7
370
    25
100
AcDbLine
 10
14.6907445788
 20
31.1273618443
 30
0.0
 11
14.0598104988
 21
30.2262945956
 31
0.0
  0
LINE
  5
359
330
1F
100
AcDbEntity
  8
0
  6
Continuous
 62
     7
370
    25
100
AcDbLine
 10
16.6903858722
 20
30.2990833007
 30
0.0
 11
16.4993728768
 21
29.2157947724
 31
0.0
  0
LINE
  5
35A
330
1F
100
AcDbEntity
  8
0
  6
Continuous
 62
     7
370
    25
100
AcDbLine
 10
18.4268676489
 20
30.2990833007
 30
0.0
 11
18.6178806443
 21
29.2157947724
 31
0.0
  0
LINE
  5
35B
330
1F
100
AcDbEntity
  8
0
  6
Continuous
 62
     7
370
    25
100
AcDbLine
 10
20.4265089423
 20
31.1273618443
 30
0.0
 11
21.0574430223
 21
30.2262945956
 31
0.0
  0
LINE
  5
35C
330
1F
100
AcDbEntity
  8
0
  6
Continuous
 62
     7
370
    25
100
AcDbLine
 10
21.654386982
 20
32.355239884
 30
0.0
 11
22.5554542307
 21
31.724305804
 31
0.0
  0
LINE
  5
35D
330
1F
100
AcDbEntity
  8
0
  6
Continuous
 62
     7
370
    25
100
AcDbLine
 10
22.4826655256
 20
34.3548811774
 30
0.0
 11
23.5659540539
 21
34.163868182
 31
0.0
  0
LINE
  5
35E
330
1F
100
AcDbEntity
  8
0
  6
Continuous
 62
     7
370
    25
100
AcDbLine
 10
22.4826655256
 20
36.0913629541
 30
0.0
 11
23.5659540539
 21
36.2823759495
 31
0.0
  0
LINE
  5
35F
330
1F
100
AcDbEntity
  8
0
  6
Continuous
 62
     7
370
    25
100
AcDbLine
 10
21.654386982
 20
38.0910042475
 30
0.0
 11
22.5554542307
 21
38.7219383275
 31
0.0
  0
LINE
  5
360
330
1F
100
AcDbEntity
  8
0
  6
Continuous
 62
     7
370
    25
100
AcDbLine
 10
20.4265089423
 20
39.3188822872
 30
0.0
 11
21.0574430223
 21
40.2199495359
 31
0.0
  0
LINE
  5
361
330
1F
100
AcDbEntity
  8
0
  6
Continuous
 62
     7
370
    25
100
AcDbLine
 10
22.4826655256
 20
-10.6451188226
 30
0.0
 11
23.5659540539
 21
-10.836131818
 31
0.0
  0
LINE
  5
362
330
1F
100
AcDbEntity
  8
0
  6
Continuous
 62
     7
370
    25
100
AcDbLine
 10
22.4826655256
 20
-8.9086370459
 30
0.0
 11
23.5659540539
 21
-8.7176240505
 31
0.0
  0
LINE
  5
363
330
1F
100
AcDbEntity
  8
0
  6
Continuous
 62
     7
370
    25
100
AcDbLine
 10
21.654386982
 20
-6.9089957525
 30
0.0
 11
22.5554542307
 21
-6.2780616725
 31
0.0
  0
LINE
  5
364
330
1F
100
AcDbEntity
  8
0
  6
Continuous
 62
     7
370
    25
100
AcDbLine
 10
20.4265089423
 20
-5.6811177128
 30
0.0
 11
21.0574430223
 21
-4.7800504641
 31
0.0
  0
LINE
  5
365
330
1F
100
AcDbEntity
  8
0
  6
Continuous
 62
     7
370
    25
100
AcDbLine
 10
18.4268676489
 20
-4.8528391692
 30
0.0
 11
18.6178806443
 21
-3.7695506409
 31
0.0
  0
LINE
  5
366
330
1F
100
AcDbEntity
  8
0
  6
Continuous
 62
     7
370
    25
100
AcDbLine
 10
16.6903858722
 20
-4.8528391692
 30
0.0
 11
16.4993728768
 21
-3.7695506409
 31
0.0
  0
LINE
  5
367
330
1F
100
AcDbEntity
  8
0
  6
Continuous
 62
     7
370
    25
100
AcDbLine
 10
14.6907445788
 20
-5.6811177128
 30
0.0
 11
14.0598104988
 21
-4.7800504641
 31
0.0
  0
LINE
  5
368
330
1F
100
AcDbEntity
  8
0
  6
Continuous
 62
     7
370
    25
100
AcDbLine
 10
13.4628665391
 20
-6.9089957525
 30
0.0
 11
12.5617992904
 21
-6.2780616725
 31
0.0
  0
LINE
  5
369
330
1F
100
AcDbEntity
  8
0
  6
Continuous
 62
     7
370
    25
100
AcDbLine
 10
12.6345879955
 20
-8.9086370459
 30
0.0
 11
11.5512994672
 21
-8.7176240505
 31
0.0
  0
LINE
  5
36A
330
1F
100
AcDbEntity
  8
0
  6
Continuous
 62
     7
370
    25
100
AcDbLine
 10
12.6345879955
 20
-10.6451188226
 30
0.0
 11
11.5512994672
 21
-10.836131818
 31
0.0
  0
LINE
  5
36B
330
1F
100
AcDbEntity
  8
0
  6
Continuous
 62
     7
370
    25
100
AcDbLine
 10
13.4628665391
 20
-12.644760116
 30
0.0
 11
12.5617992904
 21
-13.275694196
 31
0.0
  0
LINE
  5
36C
330
1F
100
AcDbEntity
  8
0
  6
Continuous
 62
     7
370
    25
100
AcDbLine
 10
14.6907445788
 20
-13.8726381557
 30
0.0
 11
14.0598104988
 21
-14.7737054044
 31
0.0
  0
LINE
  5
36D
330
1F
100
AcDbEntity
  8
0
  6
Continuous
 62
     7
370
    25
100
AcDbLine
 10
16.6903858722
 20
-14.7009166993
 30
0.0
 11
16.4993728768
 21
-15.7842052276
 31
0.0
  0
LINE
  5
36E
330
1F
100
AcDbEntity
  8
0
  6
Continuous
 62
     7
370
    25
100
AcDbLine
 10
18.4268676489
 20
-14.7009166993
 30
0.0
 11
18.6178806443
 21
-15.7842052276
 31
0.0
  0
LINE
  5
36F
330
1F
100
AcDbEntity
  8
0
  6
Continuous
 62
     7
370
    25
100
AcDbLine
 10
20.4265089423
 20
-13.8726381557
 30
0.0
 11
21.0574430223
 21
-14.7737054044
 31
0.0
  0
LINE
  5
370
330
1F
100
AcDbEntity
  8
0
  6
Continuous
 62
     7
370
    25
100
AcDbLine
 10
21.654386982
 20
-12.644760116
 30
0.0
 11
22.5554542307
 21
-13.275694196
 31
0.0
  0
LINE
  5
371
330
1F
100
AcDbEntity
  8
0
  6
Continuous
 62
     7
370
    25
100
AcDbLine
 10
-49.4413732394
 20
29.3231220657
 30
0.0
 11
-48.6413732394
 21
29.3231220657
 31
0.0
  0
LINE
  5
372
330
1F
100
AcDbEntity
  8
0
  6
Continuous
 62
     7
370
    25
100
AcDbLine
 10
-48.4413732394
 20
29.5231220657
 30
0.0
 11
-48.4413732394
 21
29.9231220657
 31
0.0
  0
LINE
  5
373
330
1F
100
AcDbEntity
  8
0
  6
Continuous
 62
     7
370
    25
100
AcDbLine
 10
-48.2413732394
 20
30.1231220657
 30
0.0
 11
-44.4413732394
 21
30.1231220657
 31
0.0
  0
LINE
  5
374
330
1F
100
AcDbEntity
  8
0
  6
Continuous
 62
     7
370
    25
100
AcDbLine
 10
-43.9413732394
 20
29.6231220657
 30
0.0
 11
-43.9413732394
 21
25.5731220657
 31
0.0
  0
LINE
  5
375
330
1F
100
AcDbEntity
  8
0
  6
Continuous
 62
     7
370
    25
100
AcDbLine
 10
-43.4413732394
 20
25.0731220657
 30
0.0
 11
-39.9198003642
 21
25.0731220657
 31
0.0
  0
LINE
  5
376
330
1F
100
AcDbEntity
  8
0
  6
Continuous
 62
     7
370
    25
100
AcDbLine
 10
-39.5662469736
 20
25.2195686751
 30
0.0
 11
-35.4347468917
 21
29.351068757
 31
0.0
  0
LINE
  5
377
330
1F
100
AcDbEntity
  8
0
  6
Continuous
 62
     7
370
    25
100
AcDbLine
 10
-35.1418536729
 20
34.2940338241
 30
0.0
 11
-35.1418536729
 21
30.0581755382
 31
0.0
  0
LINE
  5
378
330
1F
100
AcDbEntity
  8
0
  6
Continuous
 62
     7
370
    25
100
AcDbLine
 10
-34.827132163
 20
34.9731220657
 30
0.0
 11
-35.0748663748
 21
34.5440338241
 31
0.0
  0
LINE
  5
379
330
1F
100
AcDbEntity
  8
0
  6
Continuous
 62
     7
370
    25
100
AcDbLine
 10
-34.827132163
 20
35.4731220657
 30
0.0
 11
-35.0748663748
 21
35.9022103073
 31
0.0
  0
LINE
  5
37A
330
1F
100
AcDbEntity
  8
0
  6
Continuous
 62
     7
370
    25
100
AcDbLine
 10
-35.1418536729
 20
36.1522103073
 30
0.0
 11
-35.1418536729
 21
40.3880685932
 31
0.0
  0
LINE
  5
37B
330
1F
100
AcDbEntity
  8
0
  6
Continuous
 62
     7
370
    25
100
AcDbLine
 10
-35.4347468917
 20
41.0951753744
 30
0.0
 11
-39.5662469736
 21
45.2266754563
 31
0.0
  0
LINE
  5
37C
330
1F
100
AcDbEntity
  8
0
  6
Continuous
 62
     7
370
    25
100
AcDbLine
 10
-43.4413732394
 20
45.3731220657
 30
0.0
 11
-39.9198003642
 21
45.3731220657
 31
0.0
  0
LINE
  5
37D
330
1F
100
AcDbEntity
  8
0
  6
Continuous
 62
     7
370
    25
100
AcDbLine
 10
-43.9413732394
 20
40.8231220657
 30
0.0
 11
-43.9413732394
 21
44.8731220657
 31
0.0
  0
LINE
  5
37E
330
1F
100
AcDbEntity
  8
0
  6
Continuous
 62
     7
370
    25
100
AcDbLine
 10
-48.2413732394
 20
40.3231220657
 30
0.0
 11
-44.4413732394
 21
40.3231220657
 31
0.0
  0
LINE
  5
37F
330
1F
100
AcDbEntity
  8
0
  6
Continuous
 62
     7
370
    25
100
AcDbLine
 10
-48.4413732394
 20
40.9231220657
 30
0.0
 11
-48.4413732394
 21
40.5231220657
 31
0.0
  0
LINE
  5
380
330
1F
100
AcDbEntity
  8
0
  6
Continuous
 62
     7
370
    25
100
AcDbLine
 10
-49.4413732394
 20
41.1231220657
 30
0.0
 11
-48.6413732394
 21
41.1231220657
 31
0.0
  0
LINE
  5
381
330
1F
100
AcDbEntity
  8
0
  6
Continuous
 62
     7
370
    25
100
AcDbLine
 10
-49.9413732394
 20
41.6231220657
 30
0.0
 11
-49.9413732394
 21
54.7231220657
 31
0.0
  0
LINE
  5
382
330
1F
100
AcDbEntity
  8
0
  6
Continuous
 62
     7
370
    25
100
AcDbLine
 10
-33.8413732394
 20
57.7231220657
 30
0.0
 11
-46.9413732394
 21
57.7231220657
 31
0.0
  0
LINE
  5
383
330
1F
100
AcDbEntity
  8
0
  6
Continuous
 62
     7
370
    25
100
AcDbLine
 10
-33.3413732394
 20
57.2231220657
 30
0.0
 11
-33.3413732394
 21
56.4231220657
 31
0.0
  0
LINE
  5
384
330
1F
100
AcDbEntity
  8
0
  6
Continuous
 62
     7
370
    25
100
AcDbLine
 10
-33.1413732394
 20
56.2231220657
 30
0.0
 11
-32.7413732394
 21
56.2231220657
 31
0.0
  0
LINE
  5
385
330
1F
100
AcDbEntity
  8
0
  6
Continuous
 62
     7
370
    25
100
AcDbLine
 10
-32.5413732394
 20
56.0231220657
 30
0.0
 11
-32.5413732394
 21
52.2231220657
 31
0.0
  0
LINE
  5
386
330
1F
100
AcDbEntity
  8
0
  6
Continuous
 62
     7
370
    25
100
AcDbLine
 10
-33.0413732394
 20
51.7231220657
 30
0.0
 11
-37.0913732394
 21
51.7231220657
 31
0.0
  0
LINE
  5
387
330
1F
100
AcDbEntity
  8
0
  6
Continuous
 62
     7
370
    25
100
AcDbLine
 10
-37.5913732394
 20
51.2231220657
 30
0.0
 11
-37.5913732394
 21
47.7015491905
 31
0.0
  0
LINE
  5
388
330
1F
100
AcDbEntity
  8
0
  6
Continuous
 62
     7
370
    25
100
AcDbLine
 10
-37.44492663
 20
47.3479957999
 30
0.0
 11
-33.3134265481
 21
43.216495718
 31
0.0
  0
LINE
  5
389
330
1F
100
AcDbEntity
  8
0
  6
Continuous
 62
     7
370
    25
100
AcDbLine
 10
-28.370461481
 20
42.9236024992
 30
0.0
 11
-32.6063197669
 21
42.9236024992
 31
0.0
  0
LINE
  5
38A
330
1F
100
AcDbEntity
  8
0
  6
Continuous
 62
     7
370
    25
100
AcDbLine
 10
-27.6913732394
 20
42.6088809893
 30
0.0
 11
-28.120461481
 21
42.8566152011
 31
0.0
  0
LINE
  5
38B
330
1F
100
AcDbEntity
  8
0
  6
Continuous
 62
     7
370
    25
100
AcDbLine
 10
-27.1913732394
 20
42.6088809893
 30
0.0
 11
-26.7622849978
 21
42.8566152011
 31
0.0
  0
LINE
  5
38C
330
1F
100
AcDbEntity
  8
0
  6
Continuous
 62
     7
370
    25
100
AcDbLine
 10
-26.5122849978
 20
42.9236024992
 30
0.0
 11
-22.2764267119
 21
42.9236024992
 31
0.0
  0
LINE
  5
38D
330
1F
100
AcDbEntity
  8
0
  6
Continuous
 62
     7
370
    25
100
AcDbLine
 10
-21.5693199307
 20
43.216495718
 30
0.0
 11
-17.4378198488
 21
47.3479957999
 31
0.0
  0
LINE
  5
38E
330
1F
100
AcDbEntity
  8
0
  6
Continuous
 62
     7
370
    25
100
AcDbLine
 10
-17.2913732394
 20
51.2231220657
 30
0.0
 11
-17.2913732394
 21
47.7015491905
 31
0.0
  0
LINE
  5
38F
330
1F
100
AcDbEntity
  8
0
  6
Continuous
 62
     7
370
    25
100
AcDbLine
 10
-21.8413732394
 20
51.7231220657
 30
0.0
 11
-17.7913732394
 21
51.7231220657
 31
0.0
  0
LINE
  5
390
330
1F
100
AcDbEntity
  8
0
  6
Continuous
 62
     7
370
    25
100
AcDbLine
 10
-22.3413732394
 20
56.0231220657
 30
0.0
 11
-22.3413732394
 21
52.2231220657
 31
0.0
  0
LINE
  5
391
330
1F
100
AcDbEntity
  8
0
  6
Continuous
 62
     7
370
    25
100
AcDbLine
 10
-21.7413732394
 20
56.2231220657
 30
0.0
 11
-22.1413732394
 21
56.2231220657
 31
0.0
  0
LINE
  5
392
330
1F
100
AcDbEntity
  8
0
  6
Continuous
 62
     7
370
    25
100
AcDbLine
 10
-21.5413732394
 20
57.2231220657
 30
0.0
 11
-21.5413732394
 21
56.4231220657
 31
0.0
  0
LINE
  5
393
330
1F
100
AcDbEntity
  8
0
  6
Continuous
 62
     7
370
    25
100
AcDbLine
 10
-21.0413732394
 20
57.7231220657
 30
0.0
 11
-13.9413732394
 21
57.7231220657
 31
0.0
  0
LINE
  5
394
330
1F
100
AcDbEntity
  8
0
  6
Continuous
 62
     7
370
    25
100
AcDbLine
 10
-13.4413732394
 20
56.9231220657
 30
0.0
 11
-13.4413732394
 21
57.2231220657
 31
0.0
  0
LINE
  5
395
330
1F
100
AcDbEntity
  8
0
  6
Continuous
 62
     7
370
    25
100
AcDbLine
 10
3.3586267606
 20
56.7231220657
 30
0.0
 11
-13.2413732394
 21
56.7231220657
 31
0.0
  0
LINE
  5
396
330
1F
100
AcDbEntity
  8
0
  6
Continuous
 62
     7
370
    25
100
AcDbLine
 10
3.5586267606
 20
56.9231220657
 30
0.0
 11
3.5586267606
 21
57.2231220657
 31
0.0
  0
LINE
  5
397
330
1F
100
AcDbEntity
  8
0
  6
Continuous
 62
     7
370
    25
100
AcDbLine
 10
11.1586267606
 20
57.7231220657
 30
0.0
 11
4.0586267606
 21
57.7231220657
 31
0.0
  0
LINE
  5
398
330
1F
100
AcDbEntity
  8
0
  6
Continuous
 62
     7
370
    25
100
AcDbLine
 10
11.6586267606
 20
57.2231220657
 30
0.0
 11
11.6586267606
 21
56.4231220657
 31
0.0
  0
LINE
  5
399
330
1F
100
AcDbEntity
  8
0
  6
Continuous
 62
     7
370
    25
100
AcDbLine
 10
11.8586267606
 20
56.2231220657
 30
0.0
 11
12.2586267606
 21
56.2231220657
 31
0.0
  0
LINE
  5
39A
330
1F
100
AcDbEntity
  8
0
  6
Continuous
 62
     7
370
    25
100
AcDbLine
 10
12.4586267606
 20
56.0231220657
 30
0.0
 11
12.4586267606
 21
52.2231220657
 31
0.0
  0
LINE
  5
39B
330
1F
100
AcDbEntity
  8
0
  6
Continuous
 62
     7
370
    25
100
AcDbLine
 10
11.9586267606
 20
51.7231220657
 30
0.0
 11
7.9086267606
 21
51.7231220657
 31
0.0
  0
LINE
  5
39C
330
1F
100
AcDbEntity
  8
0
  6
Continuous
 62
     7
370
    25
100
AcDbLine
 10
7.4086267606
 20
51.2231220657
 30
0.0
 11
7.4086267606
 21
47.7015491905
 31
0.0
  0
LINE
  5
39D
330
1F
100
AcDbEntity
  8
0
  6
Continuous
 62
     7
370
    25
100
AcDbLine
 10
7.55507337
 20
47.3479957999
 30
0.0
 11
11.6865734519
 21
43.216495718
 31
0.0
  0
LINE
  5
39E
330
1F
100
AcDbEntity
  8
0
  6
Continuous
 62
     7
370
    25
100
AcDbLine
 10
16.629538519
 20
42.9236024992
 30
0.0
 11
12.3936802331
 21
42.9236024992
 31
0.0
  0
LINE
  5
39F
330
1F
100
AcDbEntity
  8
0
  6
Continuous
 62
     7
370
    25
100
AcDbLine
 10
17.3086267606
 20
42.6088809893
 30
0.0
 11
16.879538519
 21
42.8566152011
 31
0.0
  0
LINE
  5
3A0
330
1F
100
AcDbEntity
  8
0
  6
Continuous
 62
     7
370
    25
100
AcDbLine
 10
17.8086267606
 20
42.6088809893
 30
0.0
 11
18.2377150022
 21
42.8566152011
 31
0.0
  0
LINE
  5
3A1
330
1F
100
AcDbEntity
  8
0
  6
Continuous
 62
     7
370
    25
100
AcDbLine
 10
18.4877150022
 20
42.9236024992
 30
0.0
 11
22.7235732881
 21
42.9236024992
 31
0.0
  0
LINE
  5
3A2
330
1F
100
AcDbEntity
  8
0
  6
Continuous
 62
     7
370
    25
100
AcDbLine
 10
23.4306800693
 20
43.216495718
 30
0.0
 11
27.5621801512
 21
47.3479957999
 31
0.0
  0
LINE
  5
3A3
330
1F
100
AcDbEntity
  8
0
  6
Continuous
 62
     7
370
    25
100
AcDbLine
 10
27.7086267606
 20
51.2231220657
 30
0.0
 11
27.7086267606
 21
47.7015491905
 31
0.0
  0
LINE
  5
3A4
330
1F
100
AcDbEntity
  8
0
  6
Continuous
 62
     7
370
    25
100
AcDbLine
 10
23.1586267606
 20
51.7231220657
 30
0.0
 11
27.2086267606
 21
51.7231220657
 31
0.0
  0
LINE
  5
3A5
330
1F
100
AcDbEntity
  8
0
  6
Continuous
 62
     7
370
    25
100
AcDbLine
 10
22.6586267606
 20
56.0231220657
 30
0.0
 11
22.6586267606
 21
52.2231220657
 31
0.0
  0
LINE
  5
3A6
330
1F
100
AcDbEntity
  8
0
  6
Continuous
 62
     7
370
    25
100
AcDbLine
 10
23.2586267606
 20
56.2231220657
 30
0.0
 11
22.8586267606
 21
56.2231220657
 31
0.0
  0
LINE
  5
3A7
330
1F
100
AcDbEntity
  8
0
  6
Continuous
 62
     7
370
    25
100
AcDbLine
 10
23.4586267606
 20
57.2231220657
 30
0.0
 11
23.4586267606
 21
56.4231220657
 31
0.0
  0
LINE
  5
3A8
330
1F
100
AcDbEntity
  8
0
  6
Continuous
 62
     7
370
    25
100
AcDbLine
 10
23.9586267606
 20
57.7231220657
 30
0.0
 11
37.0586267606
 21
57.7231220657
 31
0.0
  0
LINE
  5
3A9
330
1F
100
AcDbEntity
  8
0
  6
Continuous
 62
     7
370
    25
100
AcDbLine
 10
40.0586267606
 20
41.6231220657
 30
0.0
 11
40.0586267606
 21
54.7231220657
 31
0.0
  0
LINE
  5
3AA
330
1F
100
AcDbEntity
  8
0
  6
Continuous
 62
     7
370
    25
100
AcDbLine
 10
39.5586267606
 20
41.1231220657
 30
0.0
 11
38.7586267606
 21
41.1231220657
 31
0.0
  0
LINE
  5
3AB
330
1F
100
AcDbEntity
  8
0
  6
Continuous
 62
     7
370
    25
100
AcDbLine
 10
38.5586267606
 20
40.9231220657
 30
0.0
 11
38.5586267606
 21
40.5231220657
 31
0.0
  0
LINE
  5
3AC
330
1F
100
AcDbEntity
  8
0
  6
Continuous
 62
     7
370
    25
100
AcDbLine
 10
38.3586267606
 20
40.3231220657
 30
0.0
 11
34.5586267606
 21
40.3231220657
 31
0.0
  0
LINE
  5
3AD
330
1F
100
AcDbEntity
  8
0
  6
Continuous
 62
     7
370
    25
100
AcDbLine
 10
34.0586267606
 20
40.8231220657
 30
0.0
 11
34.0586267606
 21
44.8731220657
 31
0.0
  0
LINE
  5
3AE
330
1F
100
AcDbEntity
  8
0
  6
Continuous
 62
     7
370
    25
100
AcDbLine
 10
33.5586267606
 20
45.3731220657
 30
0.0
 11
30.0370538853
 21
45.3731220657
 31
0.0
  0
LINE
  5
3AF
330
1F
100
AcDbEntity
  8
0
  6
Continuous
 62
     7
370
    25
100
AcDbLine
 10
29.6835004947
 20
45.2266754563
 30
0.0
 11
25.5520004128
 21
41.0951753744
 31
0.0
  0
LINE
  5
3B0
330
1F
100
AcDbEntity
  8
0
  6
Continuous
 62
     7
370
    25
100
AcDbLine
 10
25.259107194
 20
36.1522103073
 30
0.0
 11
25.259107194
 21
40.3880685932
 31
0.0
  0
LINE
  5
3B1
330
1F
100
AcDbEntity
  8
0
  6
Continuous
 62
     7
370
    25
100
AcDbLine
 10
24.9443856841
 20
35.4731220657
 30
0.0
 11
25.1921198959
 21
35.9022103073
 31
0.0
  0
LINE
  5
3B2
330
1F
100
AcDbEntity
  8
0
  6
Continuous
 62
     7
370
    25
100
AcDbLine
 10
24.9443856841
 20
34.9731220657
 30
0.0
 11
25.1921198959
 21
34.5440338241
 31
0.0
  0
LINE
  5
3B3
330
1F
100
AcDbEntity
  8
0
  6
Continuous
 62
     7
370
    25
100
AcDbLine
 10
25.259107194
 20
34.2940338241
 30
0.0
 11
25.259107194
 21
30.0581755382
 31
0.0
  0
LINE
  5
3B4
330
1F
100
AcDbEntity
  8
0
  6
Continuous
 62
     7
370
    25
100
AcDbLine
 10
25.5520004128
 20
29.351068757
 30
0.0
 11
29.6835004947
 21
25.2195686751
 31
0.0
  0
LINE
  5
3B5
330
1F
100
AcDbEntity
  8
0
  6
Continuous
 62
     7
370
    25
100
AcDbLine
 10
33.5586267606
 20
25.0731220657
 30
0.0
 11
30.0370538853
 21
25.0731220657
 31
0.0
  0
LINE
  5
3B6
330
1F
100
AcDbEntity
  8
0
  6
Continuous
 62
     7
370
    25
100
AcDbLine
 10
34.0586267606
 20
29.6231220657
 30
0.0
 11
34.0586267606
 21
25.5731220657
 31
0.0
  0
LINE
  5
3B7
330
1F
100
AcDbEntity
  8
0
  6
Continuous
 62
     7
370
    25
100
AcDbLine
 10
38.3586267606
 20
30.1231220657
 30
0.0
 11
34.5586267606
 21
30.1231220657
 31
0.0
  0
LINE
  5
3B8
330
1F
100
AcDbEntity
  8
0
  6
Continuous
 62
     7
370
    25
100
AcDbLine
 10
38.5586267606
 20
29.5231220657
 30
0.0
 11
38.5586267606
 21
29.9231220657
 31
0.0
  0
LINE
  5
3B9
330
1F
100
AcDbEntity
  8
0
  6
Continuous
 62
     7
370
    25
100
AcDbLine
 10
39.5586267606
 20
29.3231220657
 30
0.0
 11
38.7586267606
 21
29.3231220657
 31
0.0
  0
LINE
  5
3BA
330
1F
100
AcDbEntity
  8
0
  6
Continuous
 62
     7
370
    25
100
AcDbLine
 10
40.0586267606
 20
28.8231220657
 30
0.0
 11
40.0586267606
 21
21.7231220657
 31
0.0
  0
LINE
  5
3BB
330
1F
100
AcDbEntity
  8
0
  6
Continuous
 62
     7
370
    25
100
AcDbLine
 10
39.2586267606
 20
21.2231220657
 30
0.0
 11
39.5586267606
 21
21.2231220657
 31
0.0
  0
LINE
  5
3BC
330
1F
100
AcDbEntity
  8
0
  6
Continuous
 62
     7
370
    25
100
AcDbLine
 10
39.0586267606
 20
21.0231220657
 30
0.0
 11
39.0586267606
 21
4.4231220657
 31
0.0
  0
LINE
  5
3BD
330
1F
100
AcDbEntity
  8
0
  6
Continuous
 62
     7
370
    25
100
AcDbLine
 10
39.2586267606
 20
4.2231220657
 30
0.0
 11
39.5586267606
 21
4.2231220657
 31
0.0
  0
LINE
  5
3BE
330
1F
100
AcDbEntity
  8
0
  6
Continuous
 62
     7
370
    25
100
AcDbLine
 10
40.0586267606
 20
-3.3768779343
 30
0.0
 11
40.0586267606
 21
3.7231220657
 31
0.0
  0
LINE
  5
3BF
330
1F
100
AcDbEntity
  8
0
  6
Continuous
 62
     7
370
    25
100
AcDbLine
 10
39.5586267606
 20
-3.8768779343
 30
0.0
 11
38.7586267606
 21
-3.8768779343
 31
0.0
  0
LINE
  5
3C0
330
1F
100
AcDbEntity
  8
0
  6
Continuous
 62
     7
370
    25
100
AcDbLine
 10
38.5586267606
 20
-4.0768779343
 30
0.0
 11
38.5586267606
 21
-4.4768779343
 31
0.0
  0
LINE
  5
3C1
330
1F
100
AcDbEntity
  8
0
  6
Continuous
 62
     7
370
    25
100
AcDbLine
 10
38.3586267606
 20
-4.6768779343
 30
0.0
 11
34.5586267606
 21
-4.6768779343
 31
0.0
  0
LINE
  5
3C2
330
1F
100
AcDbEntity
  8
0
  6
Continuous
 62
     7
370
    25
100
AcDbLine
 10
34.0586267606
 20
-4.1768779343
 30
0.0
 11
34.0586267606
 21
-0.1268779343
 31
0.0
  0
LINE
  5
3C3
330
1F
100
AcDbEntity
  8
0
  6
Continuous
 62
     7
370
    25
100
AcDbLine
 10
33.5586267606
 20
0.3731220657
 30
0.0
 11
30.0370538853
 21
0.3731220657
 31
0.0
  0
LINE
  5
3C4
330
1F
100
AcDbEntity
  8
0
  6
Continuous
 62
     7
370
    25
100
AcDbLine
 10
29.6835004947
 20
0.2266754563
 30
0.0
 11
25.5520004128
 21
-3.9048246256
 31
0.0
  0
LINE
  5
3C5
330
1F
100
AcDbEntity
  8
0
  6
Continuous
 62
     7
370
    25
100
AcDbLine
 10
25.259107194
 20
-8.8477896927
 30
0.0
 11
25.259107194
 21
-4.6119314068
 31
0.0
  0
LINE
  5
3C6
330
1F
100
AcDbEntity
  8
0
  6
Continuous
 62
     7
370
    25
100
AcDbLine
 10
24.9443856841
 20
-9.5268779343
 30
0.0
 11
25.1921198959
 21
-9.0977896927
 31
0.0
  0
LINE
  5
3C7
330
1F
100
AcDbEntity
  8
0
  6
Continuous
 62
     7
370
    25
100
AcDbLine
 10
24.9443856841
 20
-10.0268779343
 30
0.0
 11
25.1921198959
 21
-10.4559661759
 31
0.0
  0
LINE
  5
3C8
330
1F
100
AcDbEntity
  8
0
  6
Continuous
 62
     7
370
    25
100
AcDbLine
 10
25.259107194
 20
-10.7059661759
 30
0.0
 11
25.259107194
 21
-14.9418244618
 31
0.0
  0
LINE
  5
3C9
330
1F
100
AcDbEntity
  8
0
  6
Continuous
 62
     7
370
    25
100
AcDbLine
 10
25.5520004128
 20
-15.648931243
 30
0.0
 11
29.6835004947
 21
-19.7804313249
 31
0.0
  0
LINE
  5
3CA
330
1F
100
AcDbEntity
  8
0
  6
Continuous
 62
     7
370
    25
100
AcDbLine
 10
33.5586267606
 20
-19.9268779343
 30
0.0
 11
30.0370538853
 21
-19.9268779343
 31
0.0
  0
LINE
  5
3CB
330
1F
100
AcDbEntity
  8
0
  6
Continuous
 62
     7
370
    25
100
AcDbLine
 10
34.0586267606
 20
-15.3768779343
 30
0.0
 11
34.0586267606
 21
-19.4268779343
 31
0.0
  0
LINE
  5
3CC
330
1F
100
AcDbEntity
  8
0
  6
Continuous
 62
     7
370
    25
100
AcDbLine
 10
38.3586267606
 20
-14.8768779343
 30
0.0
 11
34.5586267606
 21
-14.8768779343
 31
0.0
  0
LINE
  5
3CD
330
1F
100
AcDbEntity
  8
0
  6
Continuous
 62
     7
370
    25
100
AcDbLine
 10
38.5586267606
 20
-15.4768779343
 30
0.0
 11
38.5586267606
 21
-15.0768779343
 31
0.0
  0
LINE
  5
3CE
330
1F
100
AcDbEntity
  8
0
  6
Continuous
 62
     7
370
    25
100
AcDbLine
 10
39.5586267606
 20
-15.6768779343
 30
0.0
 11
38.7586267606
 21
-15.6768779343
 31
0.0
  0
LINE
  5
3CF
330
1F
100
AcDbEntity
  8
0
  6
Continuous
 62
     7
370
    25
100
AcDbLine
 10
40.0586267606
 20
-16.1768779343
 30
0.0
 11
40.0586267606
 21
-29.2768779343
 31
0.0
  0
LINE
  5
3D0
330
1F
100
AcDbEntity
  8
0
  6
Continuous
 62
     7
370
    25
100
AcDbLine
 10
23.9586267606
 20
-32.2768779343
 30
0.0
 11
37.0586267606
 21
-32.2768779343
 31
0.0
  0
LINE
  5
3D1
330
1F
100
AcDbEntity
  8
0
  6
Continuous
 62
     7
370
    25
100
AcDbLine
 10
23.4586267606
 20
-31.7768779343
 30
0.0
 11
23.4586267606
 21
-30.9768779343
 31
0.0
  0
LINE
  5
3D2
330
1F
100
AcDbEntity
  8
0
  6
Continuous
 62
     7
370
    25
100
AcDbLine
 10
23.2586267606
 20
-30.7768779343
 30
0.0
 11
22.8586267606
 21
-30.7768779343
 31
0.0
  0
LINE
  5
3D3
330
1F
100
AcDbEntity
  8
0
  6
Continuous
 62
     7
370
    25
100
AcDbLine
 10
22.6586267606
 20
-30.5768779343
 30
0.0
 11
22.6586267606
 21
-26.7768779343
 31
0.0
  0
LINE
  5
3D4
330
1F
100
AcDbEntity
  8
0
  6
Continuous
 62
     7
370
    25
100
AcDbLine
 10
23.1586267606
 20
-26.2768779343
 30
0.0
 11
27.2086267606
 21
-26.2768779343
 31
0.0
  0
LINE
  5
3D5
330
1F
100
AcDbEntity
  8
0
  6
Continuous
 62
     7
370
    25
100
AcDbLine
 10
27.7086267606
 20
-25.7768779343
 30
0.0
 11
27.7086267606
 21
-22.255305059
 31
0.0
  0
LINE
  5
3D6
330
1F
100
AcDbEntity
  8
0
  6
Continuous
 62
     7
370
    25
100
AcDbLine
 10
27.5621801512
 20
-21.9017516684
 30
0.0
 11
23.4306800693
 21
-17.7702515865
 31
0.0
  0
LINE
  5
3D7
330
1F
100
AcDbEntity
  8
0
  6
Continuous
 62
     7
370
    25
100
AcDbLine
 10
18.4877150022
 20
-17.4773583677
 30
0.0
 11
22.7235732881
 21
-17.4773583677
 31
0.0
  0
LINE
  5
3D8
330
1F
100
AcDbEntity
  8
0
  6
Continuous
 62
     7
370
    25
100
AcDbLine
 10
17.8086267606
 20
-17.1626368578
 30
0.0
 11
18.2377150022
 21
-17.4103710696
 31
0.0
  0
LINE
  5
3D9
330
1F
100
AcDbEntity
  8
0
  6
Continuous
 62
     7
370
    25
100
AcDbLine
 10
17.3086267606
 20
-17.1626368578
 30
0.0
 11
16.879538519
 21
-17.4103710696
 31
0.0
  0
LINE
  5
3DA
330
1F
100
AcDbEntity
  8
0
  6
Continuous
 62
     7
370
    25
100
AcDbLine
 10
16.629538519
 20
-17.4773583677
 30
0.0
 11
12.3936802331
 21
-17.4773583677
 31
0.0
  0
LINE
  5
3DB
330
1F
100
AcDbEntity
  8
0
  6
Continuous
 62
     7
370
    25
100
AcDbLine
 10
11.6865734519
 20
-17.7702515865
 30
0.0
 11
7.55507337
 21
-21.9017516684
 31
0.0
  0
LINE
  5
3DC
330
1F
100
AcDbEntity
  8
0
  6
Continuous
 62
     7
370
    25
100
AcDbLine
 10
7.4086267606
 20
-25.7768779343
 30
0.0
 11
7.4086267606
 21
-22.255305059
 31
0.0
  0
LINE
  5
3DD
330
1F
100
AcDbEntity
  8
0
  6
Continuous
 62
     7
370
    25
100
AcDbLine
 10
11.9586267606
 20
-26.2768779343
 30
0.0
 11
7.9086267606
 21
-26.2768779343
 31
0.0
  0
LINE
  5
3DE
330
1F
100
AcDbEntity
  8
0
  6
Continuous
 62
     7
370
    25
100
AcDbLine
 10
12.4586267606
 20
-30.5768779343
 30
0.0
 11
12.4586267606
 21
-26.7768779343
 31
0.0
  0
LINE
  5
3DF
330
1F
100
AcDbEntity
  8
0
  6
Continuous
 62
     7
370
    25
100
AcDbLine
 10
11.8586267606
 20
-30.7768779343
 30
0.0
 11
12.2586267606
 21
-30.7768779343
 31
0.0
  0
LINE
  5
3E0
330
1F
100
AcDbEntity
  8
0
  6
Continuous
 62
     7
370
    25
100
AcDbLine
 10
11.6586267606
 20
-31.7768779343
 30
0.0
 11
11.6586267606
 21
-30.9768779343
 31
0.0
  0
LINE
  5
3E1
330
1F
100
AcDbEntity
  8
0
  6
Continuous
 62
     7
370
    25
100
AcDbLine
 10
11.1586267606
 20
-32.2768779343
 30
0.0
 11
4.0586267606
 21
-32.2768779343
 31
0.0
  0
LINE
  5
3E2
330
1F
100
AcDbEntity
  8
0
  6
Continuous
 62
     7
370
    25
100
AcDbLine
 10
3.5586267606
 20
-31.4768779343
 30
0.0
 11
3.5586267606
 21
-31.7768779343
 31
0.0
  0
LINE
  5
3E3
330
1F
100
AcDbEntity
  8
0
  6
Continuous
 62
     7
370
    25
100
AcDbLine
 10
-13.2413732394
 20
-31.2768779343
 30
0.0
 11
3.3586267606
 21
-31.2768779343
 31
0.0
  0
LINE
  5
3E4
330
1F
100
AcDbEntity
  8
0
  6
Continuous
 62
     7
370
    25
100
AcDbLine
 10
-13.4413732394
 20
-31.4768779343
 30
0.0
 11
-13.4413732394
 21
-31.7768779343
 31
0.0
  0
LINE
  5
3E5
330
1F
100
AcDbEntity
  8
0
  6
Continuous
 62
     7
370
    25
100
AcDbLine
 10
-21.0413732394
 20
-32.2768779343
 30
0.0
 11
-13.9413732394
 21
-32.2768779343
 31
0.0
  0
LINE
  5
3E6
330
1F
100
AcDbEntity
  8
0
  6
Continuous
 62
     7
370
    25
100
AcDbLine
 10
-21.5413732394
 20
-31.7768779343
 30
0.0
 11
-21.5413732394
 21
-30.9768779343
 31
0.0
  0
LINE
  5
3E7
330
1F
100
AcDbEntity
  8
0
  6
Continuous
 62
     7
370
    25
100
AcDbLine
 10
-21.7413732394
 20
-30.7768779343
 30
0.0
 11
-22.1413732394
 21
-30.7768779343
 31
0.0
  0
LINE
  5
3E8
330
1F
100
AcDbEntity
  8
0
  6
Continuous
 62
     7
370
    25
100
AcDbLine
 10
-22.3413732394
 20
-30.5768779343
 30
0.0
 11
-22.3413732394
 21
-26.7768779343
 31
0.0
  0
LINE
  5
3E9
330
1F
100
AcDbEntity
  8
0
  6
Continuous
 62
     7
370
    25
100
AcDbLine
 10
-21.8413732394
 20
-26.2768779343
 30
0.0
 11
-17.7913732394
 21
-26.2768779343
 31
0.0
  0
LINE
  5
3EA
330
1F
100
AcDbEntity
  8
0
  6
Continuous
 62
     7
370
    25
100
AcDbLine
 10
-17.2913732394
 20
-25.7768779343
 30
0.0
 11
-17.2913732394
 21
-22.255305059
 31
0.0
  0
LINE
  5
3EB
330
1F
100
AcDbEntity
  8
0
  6
Continuous
 62
     7
370
    25
100
AcDbLine
 10
-17.4378198488
 20
-21.9017516684
 30
0.0
 11
-21.5693199307
 21
-17.7702515865
 31
0.0
  0
LINE
  5
3EC
330
1F
100
AcDbEntity
  8
0
  6
Continuous
 62
     7
370
    25
100
AcDbLine
 10
-26.5122849978
 20
-17.4773583677
 30
0.0
 11
-22.2764267119
 21
-17.4773583677
 31
0.0
  0
LINE
  5
3ED
330
1F
100
AcDbEntity
  8
0
  6
Continuous
 62
     7
370
    25
100
AcDbLine
 10
-27.1913732394
 20
-17.1626368578
 30
0.0
 11
-26.7622849978
 21
-17.4103710696
 31
0.0
  0
LINE
  5
3EE
330
1F
100
AcDbEntity
  8
0
  6
Continuous
 62
     7
370
    25
100
AcDbLine
 10
-27.6913732394
 20
-17.1626368578
 30
0.0
 11
-28.120461481
 21
-17.4103710696
 31
0.0
  0
LINE
  5
3EF
330
1F
100
AcDbEntity
  8
0
  6
Continuous
 62
     7
370
    25
100
AcDbLine
 10
-28.370461481
 20
-17.4773583677
 30
0.0
 11
-32.6063197669
 21
-17.4773583677
 31
0.0
  0
LINE
  5
3F0
330
1F
100
AcDbEntity
  8
0
  6
Continuous
 62
     7
370
    25
100
AcDbLine
 10
-33.3134265481
 20
-17.7702515865
 30
0.0
 11
-37.44492663
 21
-21.9017516684
 31
0.0
  0
LINE
  5
3F1
330
1F
100
AcDbEntity
  8
0
  6
Continuous
 62
     7
370
    25
100
AcDbLine
 10
-37.5913732394
 20
-25.7768779343
 30
0.0
 11
-37.5913732394
 21
-22.255305059
 31
0.0
  0
LINE
  5
3F2
330
1F
100
AcDbEntity
  8
0
  6
Continuous
 62
     7
370
    25
100
AcDbLine
 10
-33.0413732394
 20
-26.2768779343
 30
0.0
 11
-37.0913732394
 21
-26.2768779343
 31
0.0
  0
LINE
  5
3F3
330
1F
100
AcDbEntity
  8
0
  6
Continuous
 62
     7
370
    25
100
AcDbLine
 10
-32.5413732394
 20
-30.5768779343
 30
0.0
 11
-32.5413732394
 21
-26.7768779343
 31
0.0
  0
LINE
  5
3F4
330
1F
100
AcDbEntity
  8
0
  6
Continuous
 62
     7
370
    25
100
AcDbLine
 10
-33.1413732394
 20
-30.7768779343
 30
0.0
 11
-32.7413732394
 21
-30.7768779343
 31
0.0
  0
LINE
  5
3F5
330
1F
100
AcDbEntity
  8
0
  6
Continuous
 62
     7
370
    25
100
AcDbLine
 10
-33.3413732394
 20
-31.7768779343
 30
0.0
 11
-33.3413732394
 21
-30.9768779343
 31
0.0
  0
LINE
  5
3F6
330
1F
100
AcDbEntity
  8
0
  6
Continuous
 62
     7
370
    25
100
AcDbLine
 10
-33.8413732394
 20
-32.2768779343
 30
0.0
 11
-46.9413732394
 21
-32.2768779343
 31
0.0
  0
LINE
  5
3F7
330
1F
100
AcDbEntity
  8
0
  6
Continuous
 62
     7
370
    25
100
AcDbLine
 10
-49.9413732394
 20
-16.1768779343
 30
0.0
 11
-49.9413732394
 21
-29.2768779343
 31
0.0
  0
LINE
  5
3F8
330
1F
100
AcDbEntity
  8
0
  6
Continuous
 62
     7
370
    25
100
AcDbLine
 10
-49.4413732394
 20
-15.6768779343
 30
0.0
 11
-48.6413732394
 21
-15.6768779343
 31
0.0
  0
LINE
  5
3F9
330
1F
100
AcDbEntity
  8
0
  6
Continuous
 62
     7
370
    25
100
AcDbLine
 10
-48.4413732394
 20
-15.4768779343
 30
0.0
 11
-48.4413732394
 21
-15.0768779343
 31
0.0
  0
LINE
  5
3FA
330
1F
100
AcDbEntity
  8
0
  6
Continuous
 62
     7
370
    25
100
AcDbLine
 10
-48.2413732394
 20
-14.8768779343
 30
0.0
 11
-44.4413732394
 21
-14.8768779343
 31
0.0
  0
LINE
  5
3FB
330
1F
100
AcDbEntity
  8
0
  6
Continuous
 62
     7
370
    25
100
AcDbLine
 10
-43.9413732394
 20
-15.3768779343
 30
0.0
 11
-43.9413732394
 21
-19.4268779343
 31
0.0
  0
LINE
  5
3FC
330
1F
100
AcDbEntity
  8
0
  6
Continuous
 62
     7
370
    25
100
AcDbLine
 10
-43.4413732394
 20
-19.9268779343
 30
0.0
 11
-39.9198003642
 21
-19.9268779343
 31
0.0
  0
LINE
  5
3FD
330
1F
100
AcDbEntity
  8
0
  6
Continuous
 62
     7
370
    25
100
AcDbLine
 10
-39.5662469736
 20
-19.7804313249
 30
0.0
 11
-35.4347468917
 21
-15.648931243
 31
0.0
  0
LINE
  5
3FE
330
1F
100
AcDbEntity
  8
0
  6
Continuous
 62
     7
370
    25
100
AcDbLine
 10
-35.1418536729
 20
-10.7059661759
 30
0.0
 11
-35.1418536729
 21
-14.9418244618
 31
0.0
  0
LINE
  5
3FF
330
1F
100
AcDbEntity
  8
0
  6
Continuous
 62
     7
370
    25
100
AcDbLine
 10
-34.827132163
 20
-10.0268779343
 30
0.0
 11
-35.0748663748
 21
-10.4559661759
 31
0.0
  0
LINE
  5
400
330
1F
100
AcDbEntity
  8
0
  6
Continuous
 62
     7
370
    25
100
AcDbLine
 10
-34.827132163
 20
-9.5268779343
 30
0.0
 11
-35.0748663748
 21
-9.0977896927
 31
0.0
  0
LINE
  5
401
330
1F
100
AcDbEntity
  8
0
  6
Continuous
 62
     7
370
    25
100
AcDbLine
 10
-35.1418536729
 20
-8.8477896927
 30
0.0
 11
-35.1418536729
 21
-4.6119314068
 31
0.0
  0
LINE
  5
402
330
1F
100
AcDbEntity
  8
0
  6
Continuous
 62
     7
370
    25
100
AcDbLine
 10
-35.4347468917
 20
-3.9048246256
 30
0.0
 11
-39.5662469736
 21
0.2266754563
 31
0.0
  0
LINE
  5
403
330
1F
100
AcDbEntity
  8
0
  6
Continuous
 62
     7
370
    25
100
AcDbLine
 10
-43.4413732394
 20
0.3731220657
 30
0.0
 11
-39.9198003642
 21
0.3731220657
 31
0.0
  0
LINE
  5
404
330
1F
100
AcDbEntity
  8
0
  6
Continuous
 62
     7
370
    25
100
AcDbLine
 10
-43.9413732394
 20
-4.1768779343
 30
0.0
 11
-43.9413732394
 21
-0.1268779343
 31
0.0
  0
LINE
  5
405
330
1F
100
AcDbEntity
  8
0
  6
Continuous
 62
     7
370
    25
100
AcDbLine
 10
-48.2413732394
 20
-4.6768779343
 30
0.0
 11
-44.4413732394
 21
-4.6768779343
 31
0.0
  0
LINE
  5
406
330
1F
100
AcDbEntity
  8
0
  6
Continuous
 62
     7
370
    25
100
AcDbLine
 10
-48.4413732394
 20
-4.0768779343
 30
0.0
 11
-48.4413732394
 21
-4.4768779343
 31
0.0
  0
LINE
  5
407
330
1F
100
AcDbEntity
  8
0
  6
Continuous
 62
     7
370
    25
100
AcDbLine
 10
-49.4413732394
 20
-3.8768779343
 30
0.0
 11
-48.6413732394
 21
-3.8768779343
 31
0.0
  0
LINE
  5
408
330
1F
100
AcDbEntity
  8
0
  6
Continuous
 62
     7
370
    25
100
AcDbLine
 10
-49.9413732394
 20
-3.3768779343
 30
0.0
 11
-49.9413732394
 21
3.7231220657
 31
0.0
  0
LINE
  5
409
330
1F
100
AcDbEntity
  8
0
  6
Continuous
 62
     7
370
    25
100
AcDbLine
 10
-49.1413732394
 20
4.2231220657
 30
0.0
 11
-49.4413732394
 21
4.2231220657
 31
0.0
  0
LINE
  5
40A
330
1F
100
AcDbEntity
  8
0
  6
Continuous
 62
     7
370
    25
100
AcDbLine
 10
-48.9413732394
 20
4.4231220657
 30
0.0
 11
-48.9413732394
 21
21.0231220657
 31
0.0
  0
LINE
  5
40B
330
1F
100
AcDbEntity
  8
0
  6
Continuous
 62
     7
370
    25
100
AcDbLine
 10
-49.1413732394
 20
21.2231220657
 30
0.0
 11
-49.4413732394
 21
21.2231220657
 31
0.0
  0
LINE
  5
40C
330
1F
100
AcDbEntity
  8
0
  6
Continuous
 62
     7
370
    25
100
AcDbLine
 10
9.8581463271
 20
34.2940338241
 30
0.0
 11
9.8581463271
 21
31.123482381
 31
0.0
  0
LINE
  5
40D
330
1F
100
AcDbEntity
  8
0
  6
Continuous
 62
     7
370
    25
100
AcDbLine
 10
10.172867837
 20
34.9731220657
 30
0.0
 11
9.9251336252
 21
34.5440338241
 31
0.0
  0
LINE
  5
40E
330
1F
100
AcDbEntity
  8
0
  6
Continuous
 62
     7
370
    25
100
AcDbLine
 10
10.172867837
 20
35.4731220657
 30
0.0
 11
9.9251336252
 21
35.9022103073
 31
0.0
  0
LINE
  5
40F
330
1F
100
AcDbEntity
  8
0
  6
Continuous
 62
     7
370
    25
100
AcDbLine
 10
9.8581463271
 20
36.1522103073
 30
0.0
 11
9.8581463271
 21
40.3880685932
 31
0.0
  0
LINE
  5
410
330
1F
100
AcDbEntity
  8
0
  6
Continuous
 62
     7
370
    25
100
AcDbLine
 10
9.5652531083
 20
41.0951753744
 30
0.0
 11
5.35507337
 21
45.3053551128
 31
0.0
  0
LINE
  5
411
330
1F
100
AcDbEntity
  8
0
  6
Continuous
 62
     7
370
    25
100
AcDbLine
 10
5.2086267606
 20
51.5900857426
 30
0.0
 11
5.2086267606
 21
45.6589085034
 31
0.0
  0
LINE
  5
412
330
1F
100
AcDbEntity
  8
0
  6
Continuous
 62
     7
370
    25
100
AcDbLine
 10
-15.0913732394
 20
51.5900857426
 30
0.0
 11
-15.0913732394
 21
45.6589085034
 31
0.0
  0
LINE
  5
413
330
1F
100
AcDbEntity
  8
0
  6
Continuous
 62
     7
370
    25
100
AcDbLine
 10
-15.2378198488
 20
45.3053551128
 30
0.0
 11
-19.4479995872
 21
41.0951753744
 31
0.0
  0
LINE
  5
414
330
1F
100
AcDbEntity
  8
0
  6
Continuous
 62
     7
370
    25
100
AcDbLine
 10
-19.740892806
 20
36.1522103073
 30
0.0
 11
-19.740892806
 21
40.3880685932
 31
0.0
  0
LINE
  5
415
330
1F
100
AcDbEntity
  8
0
  6
Continuous
 62
     7
370
    25
100
AcDbLine
 10
-20.0556143159
 20
35.4731220657
 30
0.0
 11
-19.8078801041
 21
35.9022103073
 31
0.0
  0
LINE
  5
416
330
1F
100
AcDbEntity
  8
0
  6
Continuous
 62
     7
370
    25
100
AcDbLine
 10
-20.0556143159
 20
34.9731220657
 30
0.0
 11
-19.8078801041
 21
34.5440338241
 31
0.0
  0
LINE
  5
417
330
1F
100
AcDbEntity
  8
0
  6
Continuous
 62
     7
370
    25
100
AcDbLine
 10
-19.740892806
 20
34.2940338241
 30
0.0
 11
-19.740892806
 21
31.123482381
 31
0.0
  0
LINE
  5
418
330
1F
100
AcDbEntity
  8
0
  6
Continuous
 62
     7
370
    25
100
AcDbLine
 10
-26.5122849978
 20
27.5226416323
 30
0.0
 11
-23.3417335547
 21
27.5226416323
 31
0.0
  0
LINE
  5
419
330
1F
100
AcDbEntity
  8
0
  6
Continuous
 62
     7
370
    25
100
AcDbLine
 10
-27.1913732394
 20
27.8373631422
 30
0.0
 11
-26.7622849978
 21
27.5896289304
 31
0.0
  0
LINE
  5
41A
330
1F
100
AcDbEntity
  8
0
  6
Continuous
 62
     7
370
    25
100
AcDbLine
 10
-27.6913732394
 20
27.8373631422
 30
0.0
 11
-28.120461481
 21
27.5896289304
 31
0.0
  0
LINE
  5
41B
330
1F
100
AcDbEntity
  8
0
  6
Continuous
 62
     7
370
    25
100
AcDbLine
 10
-28.370461481
 20
27.5226416323
 30
0.0
 11
-32.6063197669
 21
27.5226416323
 31
0.0
  0
LINE
  5
41C
330
1F
100
AcDbEntity
  8
0
  6
Continuous
 62
     7
370
    25
100
AcDbLine
 10
-33.3134265481
 20
27.2297484135
 30
0.0
 11
-37.5236062865
 21
23.0195686751
 31
0.0
  0
LINE
  5
41D
330
1F
100
AcDbEntity
  8
0
  6
Continuous
 62
     7
370
    25
100
AcDbLine
 10
-43.8083369163
 20
22.8731220657
 30
0.0
 11
-37.8771596771
 21
22.8731220657
 31
0.0
  0
LINE
  5
41E
330
1F
100
AcDbEntity
  8
0
  6
Continuous
 62
     7
370
    25
100
AcDbLine
 10
-43.8083369163
 20
2.5731220657
 30
0.0
 11
-37.8771596771
 21
2.5731220657
 31
0.0
  0
LINE
  5
41F
330
1F
100
AcDbEntity
  8
0
  6
Continuous
 62
     7
370
    25
100
AcDbLine
 10
-37.5236062865
 20
2.4266754563
 30
0.0
 11
-33.3134265481
 21
-1.783504282
 31
0.0
  0
LINE
  5
420
330
1F
100
AcDbEntity
  8
0
  6
Continuous
 62
     7
370
    25
100
AcDbLine
 10
-28.370461481
 20
-2.0763975008
 30
0.0
 11
-32.6063197669
 21
-2.0763975008
 31
0.0
  0
LINE
  5
421
330
1F
100
AcDbEntity
  8
0
  6
Continuous
 62
     7
370
    25
100
AcDbLine
 10
-27.6913732394
 20
-2.3911190107
 30
0.0
 11
-28.120461481
 21
-2.1433847989
 31
0.0
  0
LINE
  5
422
330
1F
100
AcDbEntity
  8
0
  6
Continuous
 62
     7
370
    25
100
AcDbLine
 10
-27.1913732394
 20
-2.3911190107
 30
0.0
 11
-26.7622849978
 21
-2.1433847989
 31
0.0
  0
LINE
  5
423
330
1F
100
AcDbEntity
  8
0
  6
Continuous
 62
     7
370
    25
100
AcDbLine
 10
-26.5122849978
 20
-2.0763975008
 30
0.0
 11
-23.3417335547
 21
-2.0763975008
 31
0.0
  0
LINE
  5
424
330
1F
100
AcDbEntity
  8
0
  6
Continuous
 62
     7
370
    25
100
AcDbLine
 10
17.3086267606
 20
-2.3911190107
 30
0.0
 11
16.879538519
 21
-2.1433847989
 31
0.0
  0
LINE
  5
425
330
1F
100
AcDbEntity
  8
0
  6
Continuous
 62
     7
370
    25
100
AcDbLine
 10
17.8086267606
 20
-2.3911190107
 30
0.0
 11
18.2377150022
 21
-2.1433847989
 31
0.0
  0
LINE
  5
426
330
1F
100
AcDbEntity
  8
0
  6
Continuous
 62
     7
370
    25
100
AcDbLine
 10
18.4877150022
 20
-2.0763975008
 30
0.0
 11
22.7235732881
 21
-2.0763975008
 31
0.0
  0
LINE
  5
427
330
1F
100
AcDbEntity
  8
0
  6
Continuous
 62
     7
370
    25
100
AcDbLine
 10
23.4306800693
 20
-1.783504282
 30
0.0
 11
27.6408598076
 21
2.4266754563
 31
0.0
  0
LINE
  5
428
330
1F
100
AcDbEntity
  8
0
  6
Continuous
 62
     7
370
    25
100
AcDbLine
 10
33.9255904374
 20
2.5731220657
 30
0.0
 11
27.9944131982
 21
2.5731220657
 31
0.0
  0
LINE
  5
429
330
1F
100
AcDbEntity
  8
0
  6
Continuous
 62
     7
370
    25
100
AcDbLine
 10
33.9255904374
 20
22.8731220657
 30
0.0
 11
27.9944131982
 21
22.8731220657
 31
0.0
  0
LINE
  5
42A
330
1F
100
AcDbEntity
  8
0
  6
Continuous
 62
     7
370
    25
100
AcDbLine
 10
27.6408598076
 20
23.0195686751
 30
0.0
 11
23.4306800693
 21
27.2297484135
 31
0.0
  0
LINE
  5
42B
330
1F
100
AcDbEntity
  8
0
  6
Continuous
 62
     7
370
    25
100
AcDbLine
 10
18.4877150022
 20
27.5226416323
 30
0.0
 11
22.7235732881
 21
27.5226416323
 31
0.0
  0
LINE
  5
42C
330
1F
100
AcDbEntity
  8
0
  6
Continuous
 62
     7
370
    25
100
AcDbLine
 10
17.8086267606
 20
27.8373631422
 30
0.0
 11
18.2377150022
 21
27.5896289304
 31
0.0
  0
LINE
  5
42D
330
1F
100
AcDbEntity
  8
0
  6
Continuous
 62
     7
370
    25
100
AcDbLine
 10
17.3086267606
 20
27.8373631422
 30
0.0
 11
16.879538519
 21
27.5896289304
 31
0.0
  0
LINE
  5
42E
330
1F
100
AcDbEntity
  8
0
  6
Continuous
 62
     7
370
    25
100
AcDbLine
 10
16.629538519
 20
27.5226416323
 30
0.0
 11
13.4589870758
 21
27.5226416323
 31
0.0
  0
LINE
  5
42F
330
1F
100
AcDbEntity
  8
0
  6
Continuous
 62
     7
370
    25
100
AcDbLine
 10
16.629538519
 20
-2.0763975008
 30
0.0
 11
13.4589870758
 21
-2.0763975008
 31
0.0
  0
ARC
  5
430
330
1F
100
AcDbEntity
  8
0
  6
Continuous
 62
     7
370
    25
100
AcDbCircle
 10
16.629538519
 20
-2.5763975008
 30
0.0
 40
0.4999999999993567
100
AcDbArc
 50
60.0
 51
90.0
  0
ARC
  5
431
330
1F
100
AcDbEntity
  8
0
  6
Continuous
 62
     7
370
    25
100
AcDbCircle
 10
-18.740892806
 20
-5.6772382495
 30
0.0
 40
1.000000000000025
100
AcDbArc
 50
53.1315983617
 51
180.0
  0
ARC
  5
432
330
1F
100
AcDbEntity
  8
0
  6
Continuous
 62
     7
370
    25
100
AcDbCircle
 10
-47.9413732394
 20
-25.6018779343
 30
0.0
 40
0.4999999999998224
100
AcDbArc
 50
180.0
 51
270.0000000002
  0
ARC
  5
433
330
1F
100
AcDbEntity
  8
0
  6
Continuous
 62
     7
370
    25
100
AcDbCircle
 10
-43.2663732394
 20
55.7231220657
 30
0.0
 40
0.4999999999999432
100
AcDbArc
 50
90.0000000001
 51
180.0
  0
ARC
  5
434
330
1F
100
AcDbEntity
  8
0
  6
Continuous
 62
     7
370
    25
100
AcDbCircle
 10
17.5586267606
 20
35.2231220657
 30
0.0
 40
6.099999999999778
100
AcDbArc
 50
55.0
 51
80.0
  0
ARC
  5
435
330
1F
100
AcDbEntity
  8
0
  6
Continuous
 62
     7
370
    25
100
AcDbCircle
 10
17.5586267606
 20
-9.7768779343
 30
0.0
 40
6.099999999999811
100
AcDbArc
 50
325.0
 51
350.0
  0
ARC
  5
436
330
1F
100
AcDbEntity
  8
0
  6
Continuous
 62
     7
370
    25
100
AcDbCircle
 10
-4.9413732394
 20
12.7231220657
 30
0.0
 40
21.99999999999995
100
AcDbArc
 50
53.1315983617
 51
126.8684016383
  0
ARC
  5
437
330
1F
100
AcDbEntity
  8
0
  6
Continuous
 62
     7
370
    25
100
AcDbCircle
 10
-23.3417335547
 20
26.5226416323
 30
0.0
 40
1.000000000000004
100
AcDbArc
 50
323.1315983617
 51
90.0
  0
ARC
  5
438
330
1F
100
AcDbEntity
  8
0
  6
Continuous
 62
     7
370
    25
100
AcDbCircle
 10
-20.240892806
 20
-8.8477896927
 30
0.0
 40
0.4999999999995536
100
AcDbArc
 50
330.0
 51
0.0
  0
ARC
  5
439
330
1F
100
AcDbEntity
  8
0
  6
Continuous
 62
     7
370
    25
100
AcDbCircle
 10
-19.622601614
 20
-9.7768779343
 30
0.0
 40
0.500000000000027
100
AcDbArc
 50
150.0
 51
210.0
  0
ARC
  5
43A
330
1F
100
AcDbEntity
  8
0
  6
Continuous
 62
     7
370
    25
100
AcDbCircle
 10
-20.240892806
 20
-10.7059661759
 30
0.0
 40
0.500000000000178
100
AcDbArc
 50
0.0
 51
30.0
  0
ARC
  5
43B
330
1F
100
AcDbEntity
  8
0
  6
Continuous
 62
     7
370
    25
100
AcDbCircle
 10
-18.740892806
 20
-14.9418244618
 30
0.0
 40
1.000000000000065
100
AcDbArc
 50
180.0
 51
225.0
  0
ARC
  5
43C
330
1F
100
AcDbEntity
  8
0
  6
Continuous
 62
     7
370
    25
100
AcDbCircle
 10
-15.5913732394
 20
-20.2126643719
 30
0.0
 40
0.4999999999998952
100
AcDbArc
 50
360.0
 51
45.0
  0
ARC
  5
43D
330
1F
100
AcDbEntity
  8
0
  6
Continuous
 62
     7
370
    25
100
AcDbCircle
 10
-14.5913732394
 20
-26.1438416111
 30
0.0
 40
0.4999999999999824
100
AcDbArc
 50
180.0
 51
239.4762993074
  0
ARC
  5
43E
330
1F
100
AcDbEntity
  8
0
  6
Continuous
 62
     7
370
    25
100
AcDbCircle
 10
-4.9413732394
 20
-9.7768779343
 30
0.0
 40
19.49999999999977
100
AcDbArc
 50
239.4762993074
 51
300.5237006926
  0
ARC
  5
43F
330
1F
100
AcDbEntity
  8
0
  6
Continuous
 62
     7
370
    25
100
AcDbCircle
 10
4.7086267606
 20
-26.1438416111
 30
0.0
 40
0.5000000000000133
100
AcDbArc
 50
300.5237006926
 51
360.0
  0
ARC
  5
440
330
1F
100
AcDbEntity
  8
0
  6
Continuous
 62
     7
370
    25
100
AcDbCircle
 10
5.7086267606
 20
-20.2126643719
 30
0.0
 40
0.5000000000000505
100
AcDbArc
 50
135.0
 51
180.0
  0
ARC
  5
441
330
1F
100
AcDbEntity
  8
0
  6
Continuous
 62
     7
370
    25
100
AcDbCircle
 10
8.8581463271
 20
-14.9418244618
 30
0.0
 40
0.9999999999999982
100
AcDbArc
 50
315.0
 51
0.0
  0
ARC
  5
442
330
1F
100
AcDbEntity
  8
0
  6
Continuous
 62
     7
370
    25
100
AcDbCircle
 10
10.3581463271
 20
-10.7059661759
 30
0.0
 40
0.5000000000000888
100
AcDbArc
 50
150.0
 51
180.0
  0
ARC
  5
443
330
1F
100
AcDbEntity
  8
0
  6
Continuous
 62
     7
370
    25
100
AcDbCircle
 10
9.7398551351
 20
-9.7768779343
 30
0.0
 40
0.5000000000000112
100
AcDbArc
 50
330.0
 51
30.0
  0
ARC
  5
444
330
1F
100
AcDbEntity
  8
0
  6
Continuous
 62
     7
370
    25
100
AcDbCircle
 10
10.3581463271
 20
-8.8477896927
 30
0.0
 40
0.4999999999995222
100
AcDbArc
 50
180.0
 51
210.0
  0
ARC
  5
445
330
1F
100
AcDbEntity
  8
0
  6
Continuous
 62
     7
370
    25
100
AcDbCircle
 10
8.8581463271
 20
-5.6772382496
 30
0.0
 40
1.00000000000005
100
AcDbArc
 50
0.0
 51
126.8684016383
  0
ARC
  5
446
330
1F
100
AcDbEntity
  8
0
  6
Continuous
 62
     7
370
    25
100
AcDbCircle
 10
-4.9413732394
 20
12.7231220657
 30
0.0
 40
21.99999999999995
100
AcDbArc
 50
233.1315983617
 51
306.8684016383
  0
ARC
  5
447
330
1F
100
AcDbEntity
  8
0
  6
Continuous
 62
     7
370
    25
100
AcDbCircle
 10
-47.8861426505
 20
-26.6018779343
 30
0.0
 40
0.4999999999999893
100
AcDbArc
 50
6.9199168031
 51
90.0
  0
ARC
  5
448
330
1F
100
AcDbEntity
  8
0
  6
Continuous
 62
     7
370
    25
100
AcDbCircle
 10
-43.7663732394
 20
-26.1018779343
 30
0.0
 40
3.649999999999999
100
AcDbArc
 50
186.919916803
 51
263.080083197
  0
ARC
  5
449
330
1F
100
AcDbEntity
  8
0
  6
Continuous
 62
     7
370
    25
100
AcDbCircle
 10
-44.2663732394
 20
-30.2216473453
 30
0.0
 40
0.5000000000000071
100
AcDbArc
 50
0.0
 51
83.080083197
  0
ARC
  5
44A
330
1F
100
AcDbEntity
  8
0
  6
Continuous
 62
     7
370
    25
100
AcDbCircle
 10
-43.2663732394
 20
-30.2768779343
 30
0.0
 40
0.4999999999999929
100
AcDbArc
 50
179.9999999999
 51
270.0000000001
  0
ARC
  5
44B
330
1F
100
AcDbEntity
  8
0
  6
Continuous
 62
     7
370
    25
100
AcDbCircle
 10
-36.249324313
 20
-29.2768779343
 30
0.0
 40
1.500000000000608
100
AcDbArc
 50
270.0
 51
90.0
  0
ARC
  5
44C
330
1F
100
AcDbEntity
  8
0
  6
Continuous
 62
     7
370
    25
100
AcDbCircle
 10
-38.0913732394
 20
-26.7768779343
 30
0.0
 40
0.9999999999995453
100
AcDbArc
 50
179.9999999999
 51
270.0000000001
  0
ARC
  5
44D
330
1F
100
AcDbEntity
  8
0
  6
Continuous
 62
     7
370
    25
100
AcDbCircle
 10
-39.5913732394
 20
-26.6018779343
 30
0.0
 40
0.4999999999998543
100
AcDbArc
 50
0.0000000001
 51
90.0
  0
ARC
  5
44E
330
1F
100
AcDbEntity
  8
0
  6
Continuous
 62
     7
370
    25
100
AcDbCircle
 10
-39.6466038284
 20
-25.6018779343
 30
0.0
 40
0.5000000000000071
100
AcDbArc
 50
186.9199168031
 51
270.0
  0
ARC
  5
44F
330
1F
100
AcDbEntity
  8
0
  6
Continuous
 62
     7
370
    25
100
AcDbCircle
 10
-43.7663732394
 20
-26.1018779343
 30
0.0
 40
3.650000000000037
100
AcDbArc
 50
6.919916803
 51
83.080083197
  0
ARC
  5
450
330
1F
100
AcDbEntity
  8
0
  6
Continuous
 62
     7
370
    25
100
AcDbCircle
 10
-43.2663732394
 20
-21.9821085232
 30
0.0
 40
0.4999999999999929
100
AcDbArc
 50
180.0
 51
263.0800831969
  0
ARC
  5
451
330
1F
100
AcDbEntity
  8
0
  6
Continuous
 62
     7
370
    25
100
AcDbCircle
 10
-44.2663732394
 20
-21.9268779343
 30
0.0
 40
0.500000000000071
100
AcDbArc
 50
0.0000000001
 51
90.0
  0
ARC
  5
452
330
1F
100
AcDbEntity
  8
0
  6
Continuous
 62
     7
370
    25
100
AcDbCircle
 10
-44.4413732394
 20
-20.4268779343
 30
0.0
 40
0.9999999999997584
100
AcDbArc
 50
180.0
 51
270.0000000001
  0
ARC
  5
453
330
1F
100
AcDbEntity
  8
0
  6
Continuous
 62
     7
370
    25
100
AcDbCircle
 10
-46.9413732394
 20
-18.5848290078
 30
0.0
 40
1.500000000000071
100
AcDbArc
 50
0.0
 51
180.0
  0
ARC
  5
454
330
1F
100
AcDbEntity
  8
0
  6
Continuous
 62
     7
370
    25
100
AcDbCircle
 10
-27.4413732394
 20
-9.7768779343
 30
0.0
 40
5.000000000000135
100
AcDbArc
 50
305.0
 51
325.0
  0
ARC
  5
455
330
1F
100
AcDbEntity
  8
0
  6
Continuous
 62
     7
370
    25
100
AcDbCircle
 10
-27.4413732394
 20
-9.7768779343
 30
0.0
 40
6.099999999999894
100
AcDbArc
 50
325.0
 51
350.0
  0
ARC
  5
456
330
1F
100
AcDbEntity
  8
0
  6
Continuous
 62
     7
370
    25
100
AcDbCircle
 10
-27.4413732394
 20
-9.7768779343
 30
0.0
 40
4.999999999999968
100
AcDbArc
 50
350.0
 51
10.0
  0
ARC
  5
457
330
1F
100
AcDbEntity
  8
0
  6
Continuous
 62
     7
370
    25
100
AcDbCircle
 10
-27.4413732394
 20
-9.7768779343
 30
0.0
 40
6.100000000000175
100
AcDbArc
 50
10.0
 51
35.0
  0
ARC
  5
458
330
1F
100
AcDbEntity
  8
0
  6
Continuous
 62
     7
370
    25
100
AcDbCircle
 10
-27.4413732394
 20
-9.7768779343
 30
0.0
 40
4.999999999999632
100
AcDbArc
 50
35.0
 51
55.0
  0
ARC
  5
459
330
1F
100
AcDbEntity
  8
0
  6
Continuous
 62
     7
370
    25
100
AcDbCircle
 10
-27.4413732394
 20
-9.7768779343
 30
0.0
 40
6.100000000000028
100
AcDbArc
 50
55.0
 51
80.0
  0
ARC
  5
45A
330
1F
100
AcDbEntity
  8
0
  6
Continuous
 62
     7
370
    25
100
AcDbCircle
 10
-27.4413732394
 20
-9.7768779343
 30
0.0
 40
4.999999999999856
100
AcDbArc
 50
80.0
 51
100.0
  0
ARC
  5
45B
330
1F
100
AcDbEntity
  8
0
  6
Continuous
 62
     7
370
    25
100
AcDbCircle
 10
-27.4413732394
 20
-9.7768779343
 30
0.0
 40
6.099999999999883
100
AcDbArc
 50
100.0
 51
125.0
  0
ARC
  5
45C
330
1F
100
AcDbEntity
  8
0
  6
Continuous
 62
     7
370
    25
100
AcDbCircle
 10
-27.4413732394
 20
-9.7768779343
 30
0.0
 40
5.000000000000455
100
AcDbArc
 50
125.0
 51
145.0
  0
ARC
  5
45D
330
1F
100
AcDbEntity
  8
0
  6
Continuous
 62
     7
370
    25
100
AcDbCircle
 10
-27.4413732394
 20
-9.7768779343
 30
0.0
 40
6.09999999999968
100
AcDbArc
 50
145.0
 51
170.0
  0
ARC
  5
45E
330
1F
100
AcDbEntity
  8
0
  6
Continuous
 62
     7
370
    25
100
AcDbCircle
 10
-27.4413732394
 20
-9.7768779343
 30
0.0
 40
5.00000000000017
100
AcDbArc
 50
170.0
 51
190.0
  0
ARC
  5
45F
330
1F
100
AcDbEntity
  8
0
  6
Continuous
 62
     7
370
    25
100
AcDbCircle
 10
-27.4413732394
 20
-9.7768779343
 30
0.0
 40
6.099999999999532
100
AcDbArc
 50
190.0
 51
215.0
  0
ARC
  5
460
330
1F
100
AcDbEntity
  8
0
  6
Continuous
 62
     7
370
    25
100
AcDbCircle
 10
-27.4413732394
 20
-9.7768779343
 30
0.0
 40
4.999999999999678
100
AcDbArc
 50
215.0
 51
235.0
  0
ARC
  5
461
330
1F
100
AcDbEntity
  8
0
  6
Continuous
 62
     7
370
    25
100
AcDbCircle
 10
-27.4413732394
 20
-9.7768779343
 30
0.0
 40
6.099999999999902
100
AcDbArc
 50
235.0
 51
260.0
  0
ARC
  5
462
330
1F
100
AcDbEntity
  8
0
  6
Continuous
 62
     7
370
    25
100
AcDbCircle
 10
-27.4413732394
 20
-9.7768779343
 30
0.0
 40
4.999999999999917
100
AcDbArc
 50
260.0
 51
280.0
  0
ARC
  5
463
330
1F
100
AcDbEntity
  8
0
  6
Continuous
 62
     7
370
    25
100
AcDbCircle
 10
-27.4413732394
 20
-9.7768779343
 30
0.0
 40
6.099999999999732
100
AcDbArc
 50
280.0
 51
305.0
  0
ARC
  5
464
330
1F
100
AcDbEntity
  8
0
  6
Continuous
 62
     7
370
    25
100
AcDbCircle
 10
29.7086267606
 20
-26.6018779343
 30
0.0
 40
0.4999999999999893
100
AcDbArc
 50
90.0
 51
180.0
  0
ARC
  5
465
330
1F
100
AcDbEntity
  8
0
  6
Continuous
 62
     7
370
    25
100
AcDbCircle
 10
28.2086267606
 20
-26.7768779343
 30
0.0
 40
1.000000000000018
100
AcDbArc
 50
270.0
 51
0.0
  0
ARC
  5
466
330
1F
100
AcDbEntity
  8
0
  6
Continuous
 62
     7
370
    25
100
AcDbCircle
 10
26.3665778341
 20
-29.2768779343
 30
0.0
 40
1.500000000000007
100
AcDbArc
 50
90.0
 51
270.0
  0
ARC
  5
467
330
1F
100
AcDbEntity
  8
0
  6
Continuous
 62
     7
370
    25
100
AcDbCircle
 10
33.3836267606
 20
-30.2768779343
 30
0.0
 40
0.5
100
AcDbArc
 50
270.0
 51
0.0
  0
ARC
  5
468
330
1F
100
AcDbEntity
  8
0
  6
Continuous
 62
     7
370
    25
100
AcDbCircle
 10
34.3836267606
 20
-30.2216473453
 30
0.0
 40
0.5
100
AcDbArc
 50
96.919916803
 51
180.0
  0
ARC
  5
469
330
1F
100
AcDbEntity
  8
0
  6
Continuous
 62
     7
370
    25
100
AcDbCircle
 10
33.8836267606
 20
-26.1018779343
 30
0.0
 40
3.650000000000047
100
AcDbArc
 50
276.919916803
 51
353.080083197
  0
ARC
  5
46A
330
1F
100
AcDbEntity
  8
0
  6
Continuous
 62
     7
370
    25
100
AcDbCircle
 10
38.0033961716
 20
-26.6018779343
 30
0.0
 40
0.4999999999999964
100
AcDbArc
 50
90.0
 51
173.080083197
  0
ARC
  5
46B
330
1F
100
AcDbEntity
  8
0
  6
Continuous
 62
     7
370
    25
100
AcDbCircle
 10
38.0586267606
 20
-25.6018779343
 30
0.0
 40
0.4999999999998401
100
AcDbArc
 50
270.0
 51
0.0000000002
  0
ARC
  5
46C
330
1F
100
AcDbEntity
  8
0
  6
Continuous
 62
     7
370
    25
100
AcDbCircle
 10
37.0586267606
 20
-18.5848290078
 30
0.0
 40
1.500000000000007
100
AcDbArc
 50
0.0
 51
180.0
  0
ARC
  5
46D
330
1F
100
AcDbEntity
  8
0
  6
Continuous
 62
     7
370
    25
100
AcDbCircle
 10
34.5586267606
 20
-20.4268779343
 30
0.0
 40
1.0
100
AcDbArc
 50
270.0
 51
0.0000000001
  0
ARC
  5
46E
330
1F
100
AcDbEntity
  8
0
  6
Continuous
 62
     7
370
    25
100
AcDbCircle
 10
34.3836267606
 20
-21.9268779343
 30
0.0
 40
0.499999999999865
100
AcDbArc
 50
90.0
 51
180.0
  0
ARC
  5
46F
330
1F
100
AcDbEntity
  8
0
  6
Continuous
 62
     7
370
    25
100
AcDbCircle
 10
33.3836267606
 20
-21.9821085232
 30
0.0
 40
0.4999999999999865
100
AcDbArc
 50
276.919916803
 51
0.0
  0
ARC
  5
470
330
1F
100
AcDbEntity
  8
0
  6
Continuous
 62
     7
370
    25
100
AcDbCircle
 10
33.8836267606
 20
-26.1018779343
 30
0.0
 40
3.649999999999956
100
AcDbArc
 50
96.919916803
 51
173.080083197
  0
ARC
  5
471
330
1F
100
AcDbEntity
  8
0
  6
Continuous
 62
     7
370
    25
100
AcDbCircle
 10
29.7638573495
 20
-25.6018779343
 30
0.0
 40
0.4999999999999896
100
AcDbArc
 50
270.0
 51
353.080083197
  0
ARC
  5
472
330
1F
100
AcDbEntity
  8
0
  6
Continuous
 62
     7
370
    25
100
AcDbCircle
 10
34.3836267606
 20
47.3731220657
 30
0.0
 40
0.4999999999999787
100
AcDbArc
 50
180.0
 51
270.0
  0
ARC
  5
473
330
1F
100
AcDbEntity
  8
0
  6
Continuous
 62
     7
370
    25
100
AcDbCircle
 10
34.5586267606
 20
45.8731220657
 30
0.0
 40
0.9999999999997939
100
AcDbArc
 50
359.9999999998
 51
90.0
  0
ARC
  5
474
330
1F
100
AcDbEntity
  8
0
  6
Continuous
 62
     7
370
    25
100
AcDbCircle
 10
37.0586267606
 20
44.0310731393
 30
0.0
 40
1.499999999999993
100
AcDbArc
 50
180.0
 51
0.0
  0
ARC
  5
475
330
1F
100
AcDbEntity
  8
0
  6
Continuous
 62
     7
370
    25
100
AcDbCircle
 10
38.0586267606
 20
51.0481220657
 30
0.0
 40
0.4999999999994955
100
AcDbArc
 50
359.9999999996
 51
90.0000000001
  0
ARC
  5
476
330
1F
100
AcDbEntity
  8
0
  6
Continuous
 62
     7
370
    25
100
AcDbCircle
 10
38.0033961716
 20
52.0481220657
 30
0.0
 40
0.5000000000000164
100
AcDbArc
 50
186.919916803
 51
270.0
  0
ARC
  5
477
330
1F
100
AcDbEntity
  8
0
  6
Continuous
 62
     7
370
    25
100
AcDbCircle
 10
33.8836267606
 20
51.5481220657
 30
0.0
 40
3.64999999999997
100
AcDbArc
 50
6.919916803
 51
83.080083197
  0
ARC
  5
478
330
1F
100
AcDbEntity
  8
0
  6
Continuous
 62
     7
370
    25
100
AcDbCircle
 10
34.3836267606
 20
55.6678914767
 30
0.0
 40
0.5000000000000071
100
AcDbArc
 50
180.0
 51
263.0800831969
  0
ARC
  5
479
330
1F
100
AcDbEntity
  8
0
  6
Continuous
 62
     7
370
    25
100
AcDbCircle
 10
33.3836267606
 20
55.7231220657
 30
0.0
 40
0.4999999999998295
100
AcDbArc
 50
359.9999999999
 51
90.0
  0
ARC
  5
47A
330
1F
100
AcDbEntity
  8
0
  6
Continuous
 62
     7
370
    25
100
AcDbCircle
 10
26.3665778341
 20
54.7231220657
 30
0.0
 40
1.500000000000071
100
AcDbArc
 50
90.0
 51
270.0
  0
ARC
  5
47B
330
1F
100
AcDbEntity
  8
0
  6
Continuous
 62
     7
370
    25
100
AcDbCircle
 10
28.2086267606
 20
52.2231220657
 30
0.0
 40
0.99999999999973
100
AcDbArc
 50
359.9999999999
 51
90.0
  0
ARC
  5
47C
330
1F
100
AcDbEntity
  8
0
  6
Continuous
 62
     7
370
    25
100
AcDbCircle
 10
29.7086267606
 20
52.0481220657
 30
0.0
 40
0.5000000000000853
100
AcDbArc
 50
180.0
 51
269.9999999999
  0
ARC
  5
47D
330
1F
100
AcDbEntity
  8
0
  6
Continuous
 62
     7
370
    25
100
AcDbCircle
 10
29.7638573495
 20
51.0481220657
 30
0.0
 40
0.4999999999999936
100
AcDbArc
 50
6.919916803
 51
90.0
  0
ARC
  5
47E
330
1F
100
AcDbEntity
  8
0
  6
Continuous
 62
     7
370
    25
100
AcDbCircle
 10
33.8836267606
 20
51.5481220657
 30
0.0
 40
3.649999999999993
100
AcDbArc
 50
186.919916803
 51
263.080083197
  0
ARC
  5
47F
330
1F
100
AcDbEntity
  8
0
  6
Continuous
 62
     7
370
    25
100
AcDbCircle
 10
33.3836267606
 20
47.4283526547
 30
0.0
 40
0.5
100
AcDbArc
 50
360.0
 51
83.080083197
  0
ARC
  5
480
330
1F
100
AcDbEntity
  8
0
  6
Continuous
 62
     7
370
    25
100
AcDbCircle
 10
-27.4413732394
 20
35.2231220657
 30
0.0
 40
5.000000000000003
100
AcDbArc
 50
215.0
 51
235.0
  0
ARC
  5
481
330
1F
100
AcDbEntity
  8
0
  6
Continuous
 62
     7
370
    25
100
AcDbCircle
 10
-27.4413732394
 20
35.2231220657
 30
0.0
 40
6.099999999999872
100
AcDbArc
 50
235.0
 51
260.0
  0
ARC
  5
482
330
1F
100
AcDbEntity
  8
0
  6
Continuous
 62
     7
370
    25
100
AcDbCircle
 10
-27.4413732394
 20
35.2231220657
 30
0.0
 40
5.000000000000271
100
AcDbArc
 50
260.0
 51
280.0
  0
ARC
  5
483
330
1F
100
AcDbEntity
  8
0
  6
Continuous
 62
     7
370
    25
100
AcDbCircle
 10
-27.4413732394
 20
35.2231220657
 30
0.0
 40
6.100000000000181
100
AcDbArc
 50
280.0
 51
305.0
  0
ARC
  5
484
330
1F
100
AcDbEntity
  8
0
  6
Continuous
 62
     7
370
    25
100
AcDbCircle
 10
-27.4413732394
 20
35.2231220657
 30
0.0
 40
4.999999999999504
100
AcDbArc
 50
305.0
 51
325.0
  0
ARC
  5
485
330
1F
100
AcDbEntity
  8
0
  6
Continuous
 62
     7
370
    25
100
AcDbCircle
 10
-27.4413732394
 20
35.2231220657
 30
0.0
 40
6.100000000000067
100
AcDbArc
 50
325.0
 51
350.0
  0
ARC
  5
486
330
1F
100
AcDbEntity
  8
0
  6
Continuous
 62
     7
370
    25
100
AcDbCircle
 10
-27.4413732394
 20
35.2231220657
 30
0.0
 40
5.000000000000085
100
AcDbArc
 50
350.0
 51
10.0
  0
ARC
  5
487
330
1F
100
AcDbEntity
  8
0
  6
Continuous
 62
     7
370
    25
100
AcDbCircle
 10
-27.4413732394
 20
35.2231220657
 30
0.0
 40
6.099999999999758
100
AcDbArc
 50
10.0
 51
35.0
  0
ARC
  5
488
330
1F
100
AcDbEntity
  8
0
  6
Continuous
 62
     7
370
    25
100
AcDbCircle
 10
-27.4413732394
 20
35.2231220657
 30
0.0
 40
5.000000000000138
100
AcDbArc
 50
35.0
 51
55.0
  0
ARC
  5
489
330
1F
100
AcDbEntity
  8
0
  6
Continuous
 62
     7
370
    25
100
AcDbCircle
 10
-27.4413732394
 20
35.2231220657
 30
0.0
 40
6.099999999999933
100
AcDbArc
 50
55.0
 51
80.0
  0
ARC
  5
48A
330
1F
100
AcDbEntity
  8
0
  6
Continuous
 62
     7
370
    25
100
AcDbCircle
 10
-27.4413732394
 20
35.2231220657
 30
0.0
 40
5.000000000000226
100
AcDbArc
 50
80.0
 51
100.0
  0
ARC
  5
48B
330
1F
100
AcDbEntity
  8
0
  6
Continuous
 62
     7
370
    25
100
AcDbCircle
 10
-27.4413732394
 20
35.2231220657
 30
0.0
 40
6.099999999999985
100
AcDbArc
 50
100.0
 51
125.0
  0
ARC
  5
48C
330
1F
100
AcDbEntity
  8
0
  6
Continuous
 62
     7
370
    25
100
AcDbCircle
 10
-27.4413732394
 20
35.2231220657
 30
0.0
 40
4.999999999999852
100
AcDbArc
 50
125.0
 51
145.0
  0
ARC
  5
48D
330
1F
100
AcDbEntity
  8
0
  6
Continuous
 62
     7
370
    25
100
AcDbCircle
 10
-27.4413732394
 20
35.2231220657
 30
0.0
 40
6.100000000000181
100
AcDbArc
 50
145.0
 51
170.0
  0
ARC
  5
48E
330
1F
100
AcDbEntity
  8
0
  6
Continuous
 62
     7
370
    25
100
AcDbCircle
 10
-27.4413732394
 20
35.2231220657
 30
0.0
 40
4.999999999999869
100
AcDbArc
 50
170.0
 51
190.0
  0
ARC
  5
48F
330
1F
100
AcDbEntity
  8
0
  6
Continuous
 62
     7
370
    25
100
AcDbCircle
 10
-27.4413732394
 20
35.2231220657
 30
0.0
 40
6.099999999999838
100
AcDbArc
 50
190.0
 51
215.0
  0
ARC
  5
490
330
1F
100
AcDbEntity
  8
0
  6
Continuous
 62
     7
370
    25
100
AcDbCircle
 10
-44.2663732394
 20
55.6678914768
 30
0.0
 40
0.5000000000000213
100
AcDbArc
 50
276.919916803
 51
360.0
  0
ARC
  5
491
330
1F
100
AcDbEntity
  8
0
  6
Continuous
 62
     7
370
    25
100
AcDbCircle
 10
-43.7663732394
 20
51.5481220657
 30
0.0
 40
3.650000000000002
100
AcDbArc
 50
96.919916803
 51
173.080083197
  0
ARC
  5
492
330
1F
100
AcDbEntity
  8
0
  6
Continuous
 62
     7
370
    25
100
AcDbCircle
 10
-47.8861426505
 20
52.0481220657
 30
0.0
 40
0.5000000000000226
100
AcDbArc
 50
270.0
 51
353.080083197
  0
ARC
  5
493
330
1F
100
AcDbEntity
  8
0
  6
Continuous
 62
     7
370
    25
100
AcDbCircle
 10
-47.9413732394
 20
51.0481220657
 30
0.0
 40
0.4999999999999929
100
AcDbArc
 50
90.0
 51
180.0
  0
ARC
  5
494
330
1F
100
AcDbEntity
  8
0
  6
Continuous
 62
     7
370
    25
100
AcDbCircle
 10
-46.9413732394
 20
44.0310731393
 30
0.0
 40
1.500000000000007
100
AcDbArc
 50
180.0
 51
0.0
  0
ARC
  5
495
330
1F
100
AcDbEntity
  8
0
  6
Continuous
 62
     7
370
    25
100
AcDbCircle
 10
-44.4413732394
 20
45.8731220657
 30
0.0
 40
1.000000000000014
100
AcDbArc
 50
90.0
 51
180.0
  0
ARC
  5
496
330
1F
100
AcDbEntity
  8
0
  6
Continuous
 62
     7
370
    25
100
AcDbCircle
 10
-44.2663732394
 20
47.3731220657
 30
0.0
 40
0.4999999999999929
100
AcDbArc
 50
270.0
 51
0.0
  0
ARC
  5
497
330
1F
100
AcDbEntity
  8
0
  6
Continuous
 62
     7
370
    25
100
AcDbCircle
 10
-43.2663732394
 20
47.4283526547
 30
0.0
 40
0.4999999999999858
100
AcDbArc
 50
96.919916803
 51
180.0
  0
ARC
  5
498
330
1F
100
AcDbEntity
  8
0
  6
Continuous
 62
     7
370
    25
100
AcDbCircle
 10
-43.7663732394
 20
51.5481220657
 30
0.0
 40
3.649999999999992
100
AcDbArc
 50
276.919916803
 51
353.080083197
  0
ARC
  5
499
330
1F
100
AcDbEntity
  8
0
  6
Continuous
 62
     7
370
    25
100
AcDbCircle
 10
-39.6466038284
 20
51.0481220657
 30
0.0
 40
0.4999999999999952
100
AcDbArc
 50
90.0
 51
173.080083197
  0
ARC
  5
49A
330
1F
100
AcDbEntity
  8
0
  6
Continuous
 62
     7
370
    25
100
AcDbCircle
 10
-39.5913732394
 20
52.0481220657
 30
0.0
 40
0.5000000000001634
100
AcDbArc
 50
270.0
 51
0.0000000002
  0
ARC
  5
49B
330
1F
100
AcDbEntity
  8
0
  6
Continuous
 62
     7
370
    25
100
AcDbCircle
 10
-38.0913732394
 20
52.2231220657
 30
0.0
 40
1.000000000000014
100
AcDbArc
 50
90.0
 51
180.0
  0
ARC
  5
49C
330
1F
100
AcDbEntity
  8
0
  6
Continuous
 62
     7
370
    25
100
AcDbCircle
 10
-36.249324313
 20
54.7231220657
 30
0.0
 40
1.499999999998984
100
AcDbArc
 50
270.0
 51
90.0000000001
  0
ARC
  5
49D
330
1F
100
AcDbEntity
  8
0
  6
Continuous
 62
     7
370
    25
100
AcDbCircle
 10
17.5586267606
 20
35.2231220657
 30
0.0
 40
4.999999999999665
100
AcDbArc
 50
80.0
 51
100.0
  0
ARC
  5
49E
330
1F
100
AcDbEntity
  8
0
  6
Continuous
 62
     7
370
    25
100
AcDbCircle
 10
17.5586267606
 20
35.2231220657
 30
0.0
 40
6.100000000000233
100
AcDbArc
 50
100.0
 51
125.0
  0
ARC
  5
49F
330
1F
100
AcDbEntity
  8
0
  6
Continuous
 62
     7
370
    25
100
AcDbCircle
 10
17.5586267606
 20
35.2231220657
 30
0.0
 40
5.00000000000005
100
AcDbArc
 50
125.0
 51
145.0
  0
ARC
  5
4A0
330
1F
100
AcDbEntity
  8
0
  6
Continuous
 62
     7
370
    25
100
AcDbCircle
 10
17.5586267606
 20
35.2231220657
 30
0.0
 40
6.100000000000066
100
AcDbArc
 50
145.0
 51
170.0
  0
ARC
  5
4A1
330
1F
100
AcDbEntity
  8
0
  6
Continuous
 62
     7
370
    25
100
AcDbCircle
 10
17.5586267606
 20
35.2231220657
 30
0.0
 40
5.000000000000123
100
AcDbArc
 50
170.0
 51
190.0
  0
ARC
  5
4A2
330
1F
100
AcDbEntity
  8
0
  6
Continuous
 62
     7
370
    25
100
AcDbCircle
 10
17.5586267606
 20
35.2231220657
 30
0.0
 40
6.100000000000132
100
AcDbArc
 50
190.0
 51
215.0
  0
ARC
  5
4A3
330
1F
100
AcDbEntity
  8
0
  6
Continuous
 62
     7
370
    25
100
AcDbCircle
 10
17.5586267606
 20
35.2231220657
 30
0.0
 40
5.000000000000311
100
AcDbArc
 50
215.0
 51
235.0
  0
ARC
  5
4A4
330
1F
100
AcDbEntity
  8
0
  6
Continuous
 62
     7
370
    25
100
AcDbCircle
 10
17.5586267606
 20
35.2231220657
 30
0.0
 40
6.100000000000198
100
AcDbArc
 50
235.0
 51
260.0
  0
ARC
  5
4A5
330
1F
100
AcDbEntity
  8
0
  6
Continuous
 62
     7
370
    25
100
AcDbCircle
 10
17.5586267606
 20
35.2231220657
 30
0.0
 40
5.000000000000038
100
AcDbArc
 50
260.0
 51
280.0
  0
ARC
  5
4A6
330
1F
100
AcDbEntity
  8
0
  6
Continuous
 62
     7
370
    25
100
AcDbCircle
 10
17.5586267606
 20
35.2231220657
 30
0.0
 40
6.100000000000013
100
AcDbArc
 50
280.0
 51
305.0
  0
ARC
  5
4A7
330
1F
100
AcDbEntity
  8
0
  6
Continuous
 62
     7
370
    25
100
AcDbCircle
 10
17.5586267606
 20
35.2231220657
 30
0.0
 40
5.000000000000407
100
AcDbArc
 50
305.0
 51
325.0
  0
ARC
  5
4A8
330
1F
100
AcDbEntity
  8
0
  6
Continuous
 62
     7
370
    25
100
AcDbCircle
 10
17.5586267606
 20
35.2231220657
 30
0.0
 40
6.099999999999955
100
AcDbArc
 50
325.0
 51
350.0
  0
ARC
  5
4A9
330
1F
100
AcDbEntity
  8
0
  6
Continuous
 62
     7
370
    25
100
AcDbCircle
 10
17.5586267606
 20
35.2231220657
 30
0.0
 40
5.000000000000226
100
AcDbArc
 50
350.0
 51
10.0
  0
ARC
  5
4AA
330
1F
100
AcDbEntity
  8
0
  6
Continuous
 62
     7
370
    25
100
AcDbCircle
 10
17.5586267606
 20
35.2231220657
 30
0.0
 40
6.100000000000296
100
AcDbArc
 50
10.0
 51
35.0
  0
ARC
  5
4AB
330
1F
100
AcDbEntity
  8
0
  6
Continuous
 62
     7
370
    25
100
AcDbCircle
 10
17.5586267606
 20
35.2231220657
 30
0.0
 40
4.999999999999852
100
AcDbArc
 50
35.0
 51
55.0
  0
ARC
  5
4AC
330
1F
100
AcDbEntity
  8
0
  6
Continuous
 62
     7
370
    25
100
AcDbCircle
 10
17.5586267606
 20
-9.7768779343
 30
0.0
 40
5.000000000000216
100
AcDbArc
 50
350.0
 51
10.0
  0
ARC
  5
4AD
330
1F
100
AcDbEntity
  8
0
  6
Continuous
 62
     7
370
    25
100
AcDbCircle
 10
17.5586267606
 20
-9.7768779343
 30
0.0
 40
6.100000000000125
100
AcDbArc
 50
10.0
 51
35.0
  0
ARC
  5
4AE
330
1F
100
AcDbEntity
  8
0
  6
Continuous
 62
     7
370
    25
100
AcDbCircle
 10
17.5586267606
 20
-9.7768779343
 30
0.0
 40
4.999999999999906
100
AcDbArc
 50
35.0
 51
55.0
  0
ARC
  5
4AF
330
1F
100
AcDbEntity
  8
0
  6
Continuous
 62
     7
370
    25
100
AcDbCircle
 10
17.5586267606
 20
-9.7768779343
 30
0.0
 40
6.10000000000021
100
AcDbArc
 50
55.0
 51
80.0
  0
ARC
  5
4B0
330
1F
100
AcDbEntity
  8
0
  6
Continuous
 62
     7
370
    25
100
AcDbCircle
 10
17.5586267606
 20
-9.7768779343
 30
0.0
 40
5.000000000000258
100
AcDbArc
 50
80.0
 51
100.0
  0
ARC
  5
4B1
330
1F
100
AcDbEntity
  8
0
  6
Continuous
 62
     7
370
    25
100
AcDbCircle
 10
17.5586267606
 20
-9.7768779343
 30
0.0
 40
6.099999999999963
100
AcDbArc
 50
100.0
 51
125.0
  0
ARC
  5
4B2
330
1F
100
AcDbEntity
  8
0
  6
Continuous
 62
     7
370
    25
100
AcDbCircle
 10
17.5586267606
 20
-9.7768779343
 30
0.0
 40
5.000000000000169
100
AcDbArc
 50
125.0
 51
145.0
  0
ARC
  5
4B3
330
1F
100
AcDbEntity
  8
0
  6
Continuous
 62
     7
370
    25
100
AcDbCircle
 10
17.5586267606
 20
-9.7768779343
 30
0.0
 40
6.099999999999848
100
AcDbArc
 50
145.0
 51
170.0
  0
ARC
  5
4B4
330
1F
100
AcDbEntity
  8
0
  6
Continuous
 62
     7
370
    25
100
AcDbCircle
 10
17.5586267606
 20
-9.7768779343
 30
0.0
 40
4.999999999999975
100
AcDbArc
 50
170.0
 51
190.0
  0
ARC
  5
4B5
330
1F
100
AcDbEntity
  8
0
  6
Continuous
 62
     7
370
    25
100
AcDbCircle
 10
17.5586267606
 20
-9.7768779343
 30
0.0
 40
6.099999999999958
100
AcDbArc
 50
190.0
 51
215.0
  0
ARC
  5
4B6
330
1F
100
AcDbEntity
  8
0
  6
Continuous
 62
     7
370
    25
100
AcDbCircle
 10
17.5586267606
 20
-9.7768779343
 30
0.0
 40
5.000000000000275
100
AcDbArc
 50
215.0
 51
235.0
  0
ARC
  5
4B7
330
1F
100
AcDbEntity
  8
0
  6
Continuous
 62
     7
370
    25
100
AcDbCircle
 10
17.5586267606
 20
-9.7768779343
 30
0.0
 40
6.100000000000049
100
AcDbArc
 50
235.0
 51
260.0
  0
ARC
  5
4B8
330
1F
100
AcDbEntity
  8
0
  6
Continuous
 62
     7
370
    25
100
AcDbCircle
 10
17.5586267606
 20
-9.7768779343
 30
0.0
 40
5.000000000000163
100
AcDbArc
 50
260.0
 51
280.0
  0
ARC
  5
4B9
330
1F
100
AcDbEntity
  8
0
  6
Continuous
 62
     7
370
    25
100
AcDbCircle
 10
17.5586267606
 20
-9.7768779343
 30
0.0
 40
6.100000000000056
100
AcDbArc
 50
280.0
 51
305.0
  0
ARC
  5
4BA
330
1F
100
AcDbEntity
  8
0
  6
Continuous
 62
     7
370
    25
100
AcDbCircle
 10
17.5586267606
 20
-9.7768779343
 30
0.0
 40
5.000000000000166
100
AcDbArc
 50
305.0
 51
325.0
  0
ARC
  5
4BB
330
1F
100
AcDbEntity
  8
0
  6
Continuous
 62
     7
370
    25
100
AcDbCircle
 10
-49.4413732394
 20
28.8231220657
 30
0.0
 40
0.4999999999999893
100
AcDbArc
 50
90.0
 51
180.0
  0
ARC
  5
4BC
330
1F
100
AcDbEntity
  8
0
  6
Continuous
 62
     7
370
    25
100
AcDbCircle
 10
-48.6413732394
 20
29.5231220657
 30
0.0
 40
0.2000000000000313
100
AcDbArc
 50
270.0
 51
360.0
  0
ARC
  5
4BD
330
1F
100
AcDbEntity
  8
0
  6
Continuous
 62
     7
370
    25
100
AcDbCircle
 10
-48.2413732394
 20
29.9231220657
 30
0.0
 40
0.2000000000000028
100
AcDbArc
 50
90.0
 51
180.0
  0
ARC
  5
4BE
330
1F
100
AcDbEntity
  8
0
  6
Continuous
 62
     7
370
    25
100
AcDbCircle
 10
-44.4413732394
 20
29.6231220657
 30
0.0
 40
0.5
100
AcDbArc
 50
0.0
 51
90.0
  0
ARC
  5
4BF
330
1F
100
AcDbEntity
  8
0
  6
Continuous
 62
     7
370
    25
100
AcDbCircle
 10
-43.4413732394
 20
25.5731220657
 30
0.0
 40
0.5000000000000284
100
AcDbArc
 50
179.9999999996
 51
270.0
  0
ARC
  5
4C0
330
1F
100
AcDbEntity
  8
0
  6
Continuous
 62
     7
370
    25
100
AcDbCircle
 10
-39.9198003642
 20
25.5731220657
 30
0.0
 40
0.4999999999998583
100
AcDbArc
 50
270.0
 51
315.0
  0
ARC
  5
4C1
330
1F
100
AcDbEntity
  8
0
  6
Continuous
 62
     7
370
    25
100
AcDbCircle
 10
-36.1418536729
 20
30.0581755382
 30
0.0
 40
0.9999999999999628
100
AcDbArc
 50
315.0
 51
0.0
  0
ARC
  5
4C2
330
1F
100
AcDbEntity
  8
0
  6
Continuous
 62
     7
370
    25
100
AcDbCircle
 10
-34.6418536729
 20
34.2940338241
 30
0.0
 40
0.4999999999999005
100
AcDbArc
 50
150.0
 51
180.0
  0
ARC
  5
4C3
330
1F
100
AcDbEntity
  8
0
  6
Continuous
 62
     7
370
    25
100
AcDbCircle
 10
-35.2601448649
 20
35.2231220657
 30
0.0
 40
0.5000000000000656
100
AcDbArc
 50
330.0
 51
30.0
  0
ARC
  5
4C4
330
1F
100
AcDbEntity
  8
0
  6
Continuous
 62
     7
370
    25
100
AcDbCircle
 10
-34.6418536729
 20
36.1522103073
 30
0.0
 40
0.5000000000000587
100
AcDbArc
 50
180.0
 51
210.0
  0
ARC
  5
4C5
330
1F
100
AcDbEntity
  8
0
  6
Continuous
 62
     7
370
    25
100
AcDbCircle
 10
-36.1418536729
 20
40.3880685932
 30
0.0
 40
1.000000000000038
100
AcDbArc
 50
0.0
 51
45.0
  0
ARC
  5
4C6
330
1F
100
AcDbEntity
  8
0
  6
Continuous
 62
     7
370
    25
100
AcDbCircle
 10
-39.9198003642
 20
44.8731220657
 30
0.0
 40
0.4999999999999929
100
AcDbArc
 50
45.0
 51
90.0
  0
ARC
  5
4C7
330
1F
100
AcDbEntity
  8
0
  6
Continuous
 62
     7
370
    25
100
AcDbCircle
 10
-43.4413732394
 20
44.8731220657
 30
0.0
 40
0.5000000000000071
100
AcDbArc
 50
90.0
 51
180.0
  0
ARC
  5
4C8
330
1F
100
AcDbEntity
  8
0
  6
Continuous
 62
     7
370
    25
100
AcDbCircle
 10
-44.4413732394
 20
40.8231220657
 30
0.0
 40
0.5000000000000071
100
AcDbArc
 50
270.0
 51
0.0
  0
ARC
  5
4C9
330
1F
100
AcDbEntity
  8
0
  6
Continuous
 62
     7
370
    25
100
AcDbCircle
 10
-48.2413732394
 20
40.5231220657
 30
0.0
 40
0.2000000000000099
100
AcDbArc
 50
180.0
 51
270.0
  0
ARC
  5
4CA
330
1F
100
AcDbEntity
  8
0
  6
Continuous
 62
     7
370
    25
100
AcDbCircle
 10
-48.6413732394
 20
40.9231220657
 30
0.0
 40
0.1999999999999957
100
AcDbArc
 50
0.0
 51
90.0
  0
ARC
  5
4CB
330
1F
100
AcDbEntity
  8
0
  6
Continuous
 62
     7
370
    25
100
AcDbCircle
 10
-49.4413732394
 20
41.6231220657
 30
0.0
 40
0.5000000000000213
100
AcDbArc
 50
180.0
 51
270.0
  0
ARC
  5
4CC
330
1F
100
AcDbEntity
  8
0
  6
Continuous
 62
     7
370
    25
100
AcDbCircle
 10
-46.9413732394
 20
54.7231220657
 30
0.0
 40
3.000000000000007
100
AcDbArc
 50
90.0
 51
180.0
  0
ARC
  5
4CD
330
1F
100
AcDbEntity
  8
0
  6
Continuous
 62
     7
370
    25
100
AcDbCircle
 10
-33.8413732394
 20
57.2231220657
 30
0.0
 40
0.4999999999999858
100
AcDbArc
 50
0.0
 51
90.0
  0
ARC
  5
4CE
330
1F
100
AcDbEntity
  8
0
  6
Continuous
 62
     7
370
    25
100
AcDbCircle
 10
-33.1413732394
 20
56.4231220657
 30
0.0
 40
0.2000000000000242
100
AcDbArc
 50
180.0
 51
270.0
  0
ARC
  5
4CF
330
1F
100
AcDbEntity
  8
0
  6
Continuous
 62
     7
370
    25
100
AcDbCircle
 10
-32.7413732394
 20
56.0231220657
 30
0.0
 40
0.2000000000000028
100
AcDbArc
 50
360.0
 51
90.0
  0
ARC
  5
4D0
330
1F
100
AcDbEntity
  8
0
  6
Continuous
 62
     7
370
    25
100
AcDbCircle
 10
-33.0413732394
 20
52.2231220657
 30
0.0
 40
0.5000000000000213
100
AcDbArc
 50
270.0
 51
0.0
  0
ARC
  5
4D1
330
1F
100
AcDbEntity
  8
0
  6
Continuous
 62
     7
370
    25
100
AcDbCircle
 10
-37.0913732394
 20
51.2231220657
 30
0.0
 40
0.5
100
AcDbArc
 50
90.0
 51
180.0
  0
ARC
  5
4D2
330
1F
100
AcDbEntity
  8
0
  6
Continuous
 62
     7
370
    25
100
AcDbCircle
 10
-37.0913732394
 20
47.7015491905
 30
0.0
 40
0.4999999999999287
100
AcDbArc
 50
180.0
 51
225.0
  0
ARC
  5
4D3
330
1F
100
AcDbEntity
  8
0
  6
Continuous
 62
     7
370
    25
100
AcDbCircle
 10
-32.6063197669
 20
43.9236024992
 30
0.0
 40
1.000000000000014
100
AcDbArc
 50
225.0
 51
270.0
  0
ARC
  5
4D4
330
1F
100
AcDbEntity
  8
0
  6
Continuous
 62
     7
370
    25
100
AcDbCircle
 10
-28.370461481
 20
42.4236024992
 30
0.0
 40
0.5000000000000497
100
AcDbArc
 50
60.0
 51
90.0
  0
ARC
  5
4D5
330
1F
100
AcDbEntity
  8
0
  6
Continuous
 62
     7
370
    25
100
AcDbCircle
 10
-27.4413732394
 20
43.0418936912
 30
0.0
 40
0.5000000000000568
100
AcDbArc
 50
240.0
 51
300.0
  0
ARC
  5
4D6
330
1F
100
AcDbEntity
  8
0
  6
Continuous
 62
     7
370
    25
100
AcDbCircle
 10
-26.5122849978
 20
42.4236024992
 30
0.0
 40
0.4999999999999319
100
AcDbArc
 50
90.0
 51
120.0
  0
ARC
  5
4D7
330
1F
100
AcDbEntity
  8
0
  6
Continuous
 62
     7
370
    25
100
AcDbCircle
 10
-22.2764267119
 20
43.9236024992
 30
0.0
 40
1.000000000000026
100
AcDbArc
 50
270.0
 51
315.0
  0
ARC
  5
4D8
330
1F
100
AcDbEntity
  8
0
  6
Continuous
 62
     7
370
    25
100
AcDbCircle
 10
-17.7913732394
 20
47.7015491905
 30
0.0
 40
0.5000000000000266
100
AcDbArc
 50
315.0
 51
0.0
  0
ARC
  5
4D9
330
1F
100
AcDbEntity
  8
0
  6
Continuous
 62
     7
370
    25
100
AcDbCircle
 10
-17.7913732394
 20
51.2231220657
 30
0.0
 40
0.5000000000000142
100
AcDbArc
 50
0.0
 51
90.0
  0
ARC
  5
4DA
330
1F
100
AcDbEntity
  8
0
  6
Continuous
 62
     7
370
    25
100
AcDbCircle
 10
-21.8413732394
 20
52.2231220657
 30
0.0
 40
0.5000000000000142
100
AcDbArc
 50
180.0
 51
270.0
  0
ARC
  5
4DB
330
1F
100
AcDbEntity
  8
0
  6
Continuous
 62
     7
370
    25
100
AcDbCircle
 10
-22.1413732394
 20
56.0231220657
 30
0.0
 40
0.2000000000000028
100
AcDbArc
 50
90.0
 51
180.0
  0
ARC
  5
4DC
330
1F
100
AcDbEntity
  8
0
  6
Continuous
 62
     7
370
    25
100
AcDbCircle
 10
-21.7413732394
 20
56.4231220657
 30
0.0
 40
0.2000000000000242
100
AcDbArc
 50
270.0
 51
0.0
  0
ARC
  5
4DD
330
1F
100
AcDbEntity
  8
0
  6
Continuous
 62
     7
370
    25
100
AcDbCircle
 10
-21.0413732394
 20
57.2231220657
 30
0.0
 40
0.4999999999999929
100
AcDbArc
 50
90.0
 51
180.0
  0
ARC
  5
4DE
330
1F
100
AcDbEntity
  8
0
  6
Continuous
 62
     7
370
    25
100
AcDbCircle
 10
-13.9413732394
 20
57.2231220657
 30
0.0
 40
0.4999999999999947
100
AcDbArc
 50
0.0
 51
90.0
  0
ARC
  5
4DF
330
1F
100
AcDbEntity
  8
0
  6
Continuous
 62
     7
370
    25
100
AcDbCircle
 10
-13.2413732394
 20
56.9231220657
 30
0.0
 40
0.2000000000000171
100
AcDbArc
 50
180.0
 51
270.0
  0
ARC
  5
4E0
330
1F
100
AcDbEntity
  8
0
  6
Continuous
 62
     7
370
    25
100
AcDbCircle
 10
3.3586267606
 20
56.9231220657
 30
0.0
 40
0.2000000000000028
100
AcDbArc
 50
270.0
 51
360.0
  0
ARC
  5
4E1
330
1F
100
AcDbEntity
  8
0
  6
Continuous
 62
     7
370
    25
100
AcDbCircle
 10
4.0586267606
 20
57.2231220657
 30
0.0
 40
0.4999999999999654
100
AcDbArc
 50
90.0
 51
180.0
  0
ARC
  5
4E2
330
1F
100
AcDbEntity
  8
0
  6
Continuous
 62
     7
370
    25
100
AcDbCircle
 10
11.1586267606
 20
57.2231220657
 30
0.0
 40
0.4999999999999805
100
AcDbArc
 50
0.0
 51
90.0
  0
ARC
  5
4E3
330
1F
100
AcDbEntity
  8
0
  6
Continuous
 62
     7
370
    25
100
AcDbCircle
 10
11.8586267606
 20
56.4231220657
 30
0.0
 40
0.2000000000004682
100
AcDbArc
 50
180.0000000001
 51
270.0000000002
  0
ARC
  5
4E4
330
1F
100
AcDbEntity
  8
0
  6
Continuous
 62
     7
370
    25
100
AcDbCircle
 10
12.2586267606
 20
56.0231220657
 30
0.0
 40
0.2000000000000064
100
AcDbArc
 50
0.0000000003
 51
90.0
  0
ARC
  5
4E5
330
1F
100
AcDbEntity
  8
0
  6
Continuous
 62
     7
370
    25
100
AcDbCircle
 10
11.9586267606
 20
52.2231220657
 30
0.0
 40
0.5000000000000142
100
AcDbArc
 50
270.0
 51
0.0
  0
ARC
  5
4E6
330
1F
100
AcDbEntity
  8
0
  6
Continuous
 62
     7
370
    25
100
AcDbCircle
 10
7.9086267606
 20
51.2231220657
 30
0.0
 40
0.5000000000000107
100
AcDbArc
 50
90.0
 51
180.0
  0
ARC
  5
4E7
330
1F
100
AcDbEntity
  8
0
  6
Continuous
 62
     7
370
    25
100
AcDbCircle
 10
7.9086267606
 20
47.7015491905
 30
0.0
 40
0.5000000000011646
100
AcDbArc
 50
180.0000000001
 51
225.0000000001
  0
ARC
  5
4E8
330
1F
100
AcDbEntity
  8
0
  6
Continuous
 62
     7
370
    25
100
AcDbCircle
 10
12.3936802331
 20
43.9236024992
 30
0.0
 40
0.9999999999999805
100
AcDbArc
 50
225.0
 51
270.0
  0
ARC
  5
4E9
330
1F
100
AcDbEntity
  8
0
  6
Continuous
 62
     7
370
    25
100
AcDbCircle
 10
16.629538519
 20
42.4236024992
 30
0.0
 40
0.5000000000002203
100
AcDbArc
 50
60.0
 51
90.0
  0
ARC
  5
4EA
330
1F
100
AcDbEntity
  8
0
  6
Continuous
 62
     7
370
    25
100
AcDbCircle
 10
17.5586267606
 20
43.0418936912
 30
0.0
 40
0.5000000000000407
100
AcDbArc
 50
240.0
 51
300.0
  0
ARC
  5
4EB
330
1F
100
AcDbEntity
  8
0
  6
Continuous
 62
     7
370
    25
100
AcDbCircle
 10
18.4877150022
 20
42.4236024992
 30
0.0
 40
0.5000000000001362
100
AcDbArc
 50
90.0
 51
120.0
  0
ARC
  5
4EC
330
1F
100
AcDbEntity
  8
0
  6
Continuous
 62
     7
370
    25
100
AcDbCircle
 10
22.7235732881
 20
43.9236024992
 30
0.0
 40
0.999999999999998
100
AcDbArc
 50
270.0
 51
315.0
  0
ARC
  5
4ED
330
1F
100
AcDbEntity
  8
0
  6
Continuous
 62
     7
370
    25
100
AcDbCircle
 10
27.2086267606
 20
47.7015491905
 30
0.0
 40
0.4999999999999287
100
AcDbArc
 50
315.0
 51
0.0
  0
ARC
  5
4EE
330
1F
100
AcDbEntity
  8
0
  6
Continuous
 62
     7
370
    25
100
AcDbCircle
 10
27.2086267606
 20
51.2231220657
 30
0.0
 40
0.5000000000000142
100
AcDbArc
 50
0.0
 51
90.0
  0
ARC
  5
4EF
330
1F
100
AcDbEntity
  8
0
  6
Continuous
 62
     7
370
    25
100
AcDbCircle
 10
23.1586267606
 20
52.2231220657
 30
0.0
 40
0.5000000000000142
100
AcDbArc
 50
180.0
 51
270.0
  0
ARC
  5
4F0
330
1F
100
AcDbEntity
  8
0
  6
Continuous
 62
     7
370
    25
100
AcDbCircle
 10
22.8586267606
 20
56.0231220657
 30
0.0
 40
0.2000000000000028
100
AcDbArc
 50
90.0
 51
180.0
  0
ARC
  5
4F1
330
1F
100
AcDbEntity
  8
0
  6
Continuous
 62
     7
370
    25
100
AcDbCircle
 10
23.2586267606
 20
56.4231220657
 30
0.0
 40
0.2000000000000099
100
AcDbArc
 50
270.0
 51
0.0
  0
ARC
  5
4F2
330
1F
100
AcDbEntity
  8
0
  6
Continuous
 62
     7
370
    25
100
AcDbCircle
 10
23.9586267606
 20
57.2231220657
 30
0.0
 40
0.5000000000000036
100
AcDbArc
 50
90.0
 51
180.0
  0
ARC
  5
4F3
330
1F
100
AcDbEntity
  8
0
  6
Continuous
 62
     7
370
    25
100
AcDbCircle
 10
37.0586267606
 20
54.7231220657
 30
0.0
 40
3.000000000000007
100
AcDbArc
 50
0.0
 51
90.0
  0
ARC
  5
4F4
330
1F
100
AcDbEntity
  8
0
  6
Continuous
 62
     7
370
    25
100
AcDbCircle
 10
39.5586267606
 20
41.6231220657
 30
0.0
 40
0.4999999999998863
100
AcDbArc
 50
270.0000000001
 51
359.9999999999
  0
ARC
  5
4F5
330
1F
100
AcDbEntity
  8
0
  6
Continuous
 62
     7
370
    25
100
AcDbCircle
 10
38.7586267606
 20
40.9231220657
 30
0.0
 40
0.2000000000000242
100
AcDbArc
 50
90.0
 51
180.0
  0
ARC
  5
4F6
330
1F
100
AcDbEntity
  8
0
  6
Continuous
 62
     7
370
    25
100
AcDbCircle
 10
38.3586267606
 20
40.5231220657
 30
0.0
 40
0.2000000000000171
100
AcDbArc
 50
270.0
 51
0.0
  0
ARC
  5
4F7
330
1F
100
AcDbEntity
  8
0
  6
Continuous
 62
     7
370
    25
100
AcDbCircle
 10
34.5586267606
 20
40.8231220657
 30
0.0
 40
0.5000000000000071
100
AcDbArc
 50
180.0
 51
270.0
  0
ARC
  5
4F8
330
1F
100
AcDbEntity
  8
0
  6
Continuous
 62
     7
370
    25
100
AcDbCircle
 10
33.5586267606
 20
44.8731220657
 30
0.0
 40
0.5000000000000071
100
AcDbArc
 50
0.0
 51
90.0
  0
ARC
  5
4F9
330
1F
100
AcDbEntity
  8
0
  6
Continuous
 62
     7
370
    25
100
AcDbCircle
 10
30.0370538853
 20
44.8731220657
 30
0.0
 40
0.4999999999999929
100
AcDbArc
 50
90.0
 51
135.0
  0
ARC
  5
4FA
330
1F
100
AcDbEntity
  8
0
  6
Continuous
 62
     7
370
    25
100
AcDbCircle
 10
26.259107194
 20
40.3880685932
 30
0.0
 40
0.9999999999999528
100
AcDbArc
 50
135.0
 51
180.0
  0
ARC
  5
4FB
330
1F
100
AcDbEntity
  8
0
  6
Continuous
 62
     7
370
    25
100
AcDbCircle
 10
24.759107194
 20
36.1522103073
 30
0.0
 40
0.5000000000000497
100
AcDbArc
 50
330.0
 51
360.0
  0
ARC
  5
4FC
330
1F
100
AcDbEntity
  8
0
  6
Continuous
 62
     7
370
    25
100
AcDbCircle
 10
25.377398386
 20
35.2231220657
 30
0.0
 40
0.500000000000015
100
AcDbArc
 50
150.0
 51
210.0
  0
ARC
  5
4FD
330
1F
100
AcDbEntity
  8
0
  6
Continuous
 62
     7
370
    25
100
AcDbCircle
 10
24.759107194
 20
34.2940338241
 30
0.0
 40
0.4999999999999787
100
AcDbArc
 50
0.0
 51
30.0
  0
ARC
  5
4FE
330
1F
100
AcDbEntity
  8
0
  6
Continuous
 62
     7
370
    25
100
AcDbCircle
 10
26.259107194
 20
30.0581755382
 30
0.0
 40
0.9999999999999787
100
AcDbArc
 50
180.0
 51
225.0
  0
ARC
  5
4FF
330
1F
100
AcDbEntity
  8
0
  6
Continuous
 62
     7
370
    25
100
AcDbCircle
 10
30.0370538853
 20
25.5731220657
 30
0.0
 40
0.4999999999999965
100
AcDbArc
 50
225.0
 51
270.0
  0
ARC
  5
500
330
1F
100
AcDbEntity
  8
0
  6
Continuous
 62
     7
370
    25
100
AcDbCircle
 10
33.5586267606
 20
25.5731220657
 30
0.0
 40
0.5000000000000107
100
AcDbArc
 50
270.0
 51
0.0
  0
ARC
  5
501
330
1F
100
AcDbEntity
  8
0
  6
Continuous
 62
     7
370
    25
100
AcDbCircle
 10
34.5586267606
 20
29.6231220657
 30
0.0
 40
0.5
100
AcDbArc
 50
90.0
 51
180.0
  0
ARC
  5
502
330
1F
100
AcDbEntity
  8
0
  6
Continuous
 62
     7
370
    25
100
AcDbCircle
 10
38.3586267606
 20
29.9231220657
 30
0.0
 40
0.2000000000000028
100
AcDbArc
 50
360.0
 51
90.0
  0
ARC
  5
503
330
1F
100
AcDbEntity
  8
0
  6
Continuous
 62
     7
370
    25
100
AcDbCircle
 10
38.7586267606
 20
29.5231220657
 30
0.0
 40
0.2000000000000171
100
AcDbArc
 50
180.0
 51
270.0
  0
ARC
  5
504
330
1F
100
AcDbEntity
  8
0
  6
Continuous
 62
     7
370
    25
100
AcDbCircle
 10
39.5586267606
 20
28.8231220657
 30
0.0
 40
0.5
100
AcDbArc
 50
0.0
 51
90.0
  0
ARC
  5
505
330
1F
100
AcDbEntity
  8
0
  6
Continuous
 62
     7
370
    25
100
AcDbCircle
 10
39.5586267606
 20
21.7231220657
 30
0.0
 40
0.5000000000000071
100
AcDbArc
 50
270.0
 51
0.0
  0
ARC
  5
506
330
1F
100
AcDbEntity
  8
0
  6
Continuous
 62
     7
370
    25
100
AcDbCircle
 10
39.2586267606
 20
21.0231220657
 30
0.0
 40
0.2000000000000064
100
AcDbArc
 50
90.0
 51
180.0
  0
ARC
  5
507
330
1F
100
AcDbEntity
  8
0
  6
Continuous
 62
     7
370
    25
100
AcDbCircle
 10
39.2586267606
 20
4.4231220657
 30
0.0
 40
0.2000000000000028
100
AcDbArc
 50
180.0
 51
270.0
  0
ARC
  5
508
330
1F
100
AcDbEntity
  8
0
  6
Continuous
 62
     7
370
    25
100
AcDbCircle
 10
39.5586267606
 20
3.7231220657
 30
0.0
 40
0.5000000000000147
100
AcDbArc
 50
0.0
 51
90.0
  0
ARC
  5
509
330
1F
100
AcDbEntity
  8
0
  6
Continuous
 62
     7
370
    25
100
AcDbCircle
 10
39.5586267606
 20
-3.3768779343
 30
0.0
 40
0.5
100
AcDbArc
 50
270.0
 51
360.0
  0
ARC
  5
50A
330
1F
100
AcDbEntity
  8
0
  6
Continuous
 62
     7
370
    25
100
AcDbCircle
 10
38.7586267606
 20
-4.0768779343
 30
0.0
 40
0.2000000000000099
100
AcDbArc
 50
90.0
 51
180.0
  0
ARC
  5
50B
330
1F
100
AcDbEntity
  8
0
  6
Continuous
 62
     7
370
    25
100
AcDbCircle
 10
38.3586267606
 20
-4.4768779343
 30
0.0
 40
0.2000000000000313
100
AcDbArc
 50
270.0
 51
360.0
  0
ARC
  5
50C
330
1F
100
AcDbEntity
  8
0
  6
Continuous
 62
     7
370
    25
100
AcDbCircle
 10
34.5586267606
 20
-4.1768779343
 30
0.0
 40
0.4999999999999929
100
AcDbArc
 50
180.0
 51
270.0
  0
ARC
  5
50D
330
1F
100
AcDbEntity
  8
0
  6
Continuous
 62
     7
370
    25
100
AcDbCircle
 10
33.5586267606
 20
-0.1268779343
 30
0.0
 40
0.5000000000000142
100
AcDbArc
 50
360.0
 51
90.0
  0
ARC
  5
50E
330
1F
100
AcDbEntity
  8
0
  6
Continuous
 62
     7
370
    25
100
AcDbCircle
 10
30.0370538853
 20
-0.1268779343
 30
0.0
 40
0.4999999999999988
100
AcDbArc
 50
90.0
 51
135.0
  0
ARC
  5
50F
330
1F
100
AcDbEntity
  8
0
  6
Continuous
 62
     7
370
    25
100
AcDbCircle
 10
26.259107194
 20
-4.6119314068
 30
0.0
 40
1.000000000000011
100
AcDbArc
 50
135.0
 51
180.0
  0
ARC
  5
510
330
1F
100
AcDbEntity
  8
0
  6
Continuous
 62
     7
370
    25
100
AcDbCircle
 10
24.759107194
 20
-8.8477896927
 30
0.0
 40
0.4999999999999076
100
AcDbArc
 50
330.0
 51
0.0
  0
ARC
  5
511
330
1F
100
AcDbEntity
  8
0
  6
Continuous
 62
     7
370
    25
100
AcDbCircle
 10
25.377398386
 20
-9.7768779343
 30
0.0
 40
0.5000000000000112
100
AcDbArc
 50
150.0
 51
210.0
  0
ARC
  5
512
330
1F
100
AcDbEntity
  8
0
  6
Continuous
 62
     7
370
    25
100
AcDbCircle
 10
24.759107194
 20
-10.7059661759
 30
0.0
 40
0.4999999999998934
100
AcDbArc
 50
360.0
 51
30.0
  0
ARC
  5
513
330
1F
100
AcDbEntity
  8
0
  6
Continuous
 62
     7
370
    25
100
AcDbCircle
 10
26.259107194
 20
-14.9418244618
 30
0.0
 40
0.9999999999999654
100
AcDbArc
 50
180.0
 51
225.0
  0
ARC
  5
514
330
1F
100
AcDbEntity
  8
0
  6
Continuous
 62
     7
370
    25
100
AcDbCircle
 10
30.0370538853
 20
-19.4268779343
 30
0.0
 40
0.499999999999968
100
AcDbArc
 50
225.0
 51
270.0
  0
ARC
  5
515
330
1F
100
AcDbEntity
  8
0
  6
Continuous
 62
     7
370
    25
100
AcDbCircle
 10
33.5586267606
 20
-19.4268779343
 30
0.0
 40
0.5000000000000107
100
AcDbArc
 50
270.0
 51
0.0
  0
ARC
  5
516
330
1F
100
AcDbEntity
  8
0
  6
Continuous
 62
     7
370
    25
100
AcDbCircle
 10
34.5586267606
 20
-15.3768779343
 30
0.0
 40
0.5000000000000018
100
AcDbArc
 50
90.0
 51
180.0
  0
ARC
  5
517
330
1F
100
AcDbEntity
  8
0
  6
Continuous
 62
     7
370
    25
100
AcDbCircle
 10
38.3586267606
 20
-15.0768779343
 30
0.0
 40
0.2000000000000099
100
AcDbArc
 50
360.0
 51
90.0000000001
  0
ARC
  5
518
330
1F
100
AcDbEntity
  8
0
  6
Continuous
 62
     7
370
    25
100
AcDbCircle
 10
38.7586267606
 20
-15.4768779343
 30
0.0
 40
0.2000000000000099
100
AcDbArc
 50
180.0
 51
270.0
  0
ARC
  5
519
330
1F
100
AcDbEntity
  8
0
  6
Continuous
 62
     7
370
    25
100
AcDbCircle
 10
39.5586267606
 20
-16.1768779343
 30
0.0
 40
0.4999999999999964
100
AcDbArc
 50
0.0
 51
90.0
  0
ARC
  5
51A
330
1F
100
AcDbEntity
  8
0
  6
Continuous
 62
     7
370
    25
100
AcDbCircle
 10
37.0586267606
 20
-29.2768779343
 30
0.0
 40
2.999999999999986
100
AcDbArc
 50
270.0
 51
0.0
  0
ARC
  5
51B
330
1F
100
AcDbEntity
  8
0
  6
Continuous
 62
     7
370
    25
100
AcDbCircle
 10
23.9586267606
 20
-31.7768779343
 30
0.0
 40
0.4999999999999893
100
AcDbArc
 50
180.0
 51
270.0
  0
ARC
  5
51C
330
1F
100
AcDbEntity
  8
0
  6
Continuous
 62
     7
370
    25
100
AcDbCircle
 10
23.2586267606
 20
-30.9768779343
 30
0.0
 40
0.1999999999999957
100
AcDbArc
 50
0.0
 51
90.0
  0
ARC
  5
51D
330
1F
100
AcDbEntity
  8
0
  6
Continuous
 62
     7
370
    25
100
AcDbCircle
 10
22.8586267606
 20
-30.5768779343
 30
0.0
 40
0.2000000000000135
100
AcDbArc
 50
180.0
 51
270.0
  0
ARC
  5
51E
330
1F
100
AcDbEntity
  8
0
  6
Continuous
 62
     7
370
    25
100
AcDbCircle
 10
23.1586267606
 20
-26.7768779343
 30
0.0
 40
0.5
100
AcDbArc
 50
90.0
 51
180.0
  0
ARC
  5
51F
330
1F
100
AcDbEntity
  8
0
  6
Continuous
 62
     7
370
    25
100
AcDbCircle
 10
27.2086267606
 20
-25.7768779343
 30
0.0
 40
0.5000000000000036
100
AcDbArc
 50
270.0
 51
0.0
  0
ARC
  5
520
330
1F
100
AcDbEntity
  8
0
  6
Continuous
 62
     7
370
    25
100
AcDbCircle
 10
27.2086267606
 20
-22.255305059
 30
0.0
 40
0.4999999999999609
100
AcDbArc
 50
360.0
 51
45.0
  0
ARC
  5
521
330
1F
100
AcDbEntity
  8
0
  6
Continuous
 62
     7
370
    25
100
AcDbCircle
 10
22.7235732881
 20
-18.4773583677
 30
0.0
 40
1.000000000000032
100
AcDbArc
 50
45.0
 51
90.0
  0
ARC
  5
522
330
1F
100
AcDbEntity
  8
0
  6
Continuous
 62
     7
370
    25
100
AcDbCircle
 10
18.4877150022
 20
-16.9773583677
 30
0.0
 40
0.5000000000000274
100
AcDbArc
 50
240.0
 51
270.0
  0
ARC
  5
523
330
1F
100
AcDbEntity
  8
0
  6
Continuous
 62
     7
370
    25
100
AcDbCircle
 10
17.5586267606
 20
-17.5956495597
 30
0.0
 40
0.5000000000000041
100
AcDbArc
 50
60.0
 51
120.0
  0
ARC
  5
524
330
1F
100
AcDbEntity
  8
0
  6
Continuous
 62
     7
370
    25
100
AcDbCircle
 10
16.629538519
 20
-16.9773583677
 30
0.0
 40
0.4999999999999432
100
AcDbArc
 50
270.0
 51
300.0
  0
ARC
  5
525
330
1F
100
AcDbEntity
  8
0
  6
Continuous
 62
     7
370
    25
100
AcDbCircle
 10
12.3936802331
 20
-18.4773583677
 30
0.0
 40
0.9999999999999604
100
AcDbArc
 50
90.0
 51
135.0
  0
ARC
  5
526
330
1F
100
AcDbEntity
  8
0
  6
Continuous
 62
     7
370
    25
100
AcDbCircle
 10
7.9086267606
 20
-22.255305059
 30
0.0
 40
0.4999999999999758
100
AcDbArc
 50
135.0
 51
180.0
  0
ARC
  5
527
330
1F
100
AcDbEntity
  8
0
  6
Continuous
 62
     7
370
    25
100
AcDbCircle
 10
7.9086267606
 20
-25.7768779343
 30
0.0
 40
0.5000000000000124
100
AcDbArc
 50
180.0
 51
270.0
  0
ARC
  5
528
330
1F
100
AcDbEntity
  8
0
  6
Continuous
 62
     7
370
    25
100
AcDbCircle
 10
11.9586267606
 20
-26.7768779343
 30
0.0
 40
0.5
100
AcDbArc
 50
360.0
 51
89.9999999999
  0
ARC
  5
529
330
1F
100
AcDbEntity
  8
0
  6
Continuous
 62
     7
370
    25
100
AcDbCircle
 10
12.2586267606
 20
-30.5768779343
 30
0.0
 40
0.1999999999999886
100
AcDbArc
 50
270.0
 51
0.0
  0
ARC
  5
52A
330
1F
100
AcDbEntity
  8
0
  6
Continuous
 62
     7
370
    25
100
AcDbCircle
 10
11.8586267606
 20
-30.9768779343
 30
0.0
 40
0.2000000000000135
100
AcDbArc
 50
90.0
 51
180.0
  0
ARC
  5
52B
330
1F
100
AcDbEntity
  8
0
  6
Continuous
 62
     7
370
    25
100
AcDbCircle
 10
11.1586267606
 20
-31.7768779343
 30
0.0
 40
0.4999999999999893
100
AcDbArc
 50
270.0
 51
360.0
  0
ARC
  5
52C
330
1F
100
AcDbEntity
  8
0
  6
Continuous
 62
     7
370
    25
100
AcDbCircle
 10
4.0586267606
 20
-31.7768779343
 30
0.0
 40
0.4999999999999822
100
AcDbArc
 50
180.0
 51
270.0
  0
ARC
  5
52D
330
1F
100
AcDbEntity
  8
0
  6
Continuous
 62
     7
370
    25
100
AcDbCircle
 10
3.3586267606
 20
-31.4768779343
 30
0.0
 40
0.2000000000000064
100
AcDbArc
 50
359.9999999998
 51
90.0000000007
  0
ARC
  5
52E
330
1F
100
AcDbEntity
  8
0
  6
Continuous
 62
     7
370
    25
100
AcDbCircle
 10
-13.2413732394
 20
-31.4768779343
 30
0.0
 40
0.1999999999999993
100
AcDbArc
 50
90.0
 51
180.0
  0
ARC
  5
52F
330
1F
100
AcDbEntity
  8
0
  6
Continuous
 62
     7
370
    25
100
AcDbCircle
 10
-13.9413732394
 20
-31.7768779343
 30
0.0
 40
0.5000000000000053
100
AcDbArc
 50
270.0
 51
360.0
  0
ARC
  5
530
330
1F
100
AcDbEntity
  8
0
  6
Continuous
 62
     7
370
    25
100
AcDbCircle
 10
-21.0413732394
 20
-31.7768779343
 30
0.0
 40
0.5000000000000036
100
AcDbArc
 50
180.0
 51
270.0
  0
ARC
  5
531
330
1F
100
AcDbEntity
  8
0
  6
Continuous
 62
     7
370
    25
100
AcDbCircle
 10
-21.7413732394
 20
-30.9768779343
 30
0.0
 40
0.2000000000000242
100
AcDbArc
 50
360.0
 51
90.0
  0
ARC
  5
532
330
1F
100
AcDbEntity
  8
0
  6
Continuous
 62
     7
370
    25
100
AcDbCircle
 10
-22.1413732394
 20
-30.5768779343
 30
0.0
 40
0.2000000000000028
100
AcDbArc
 50
180.0
 51
270.0
  0
ARC
  5
533
330
1F
100
AcDbEntity
  8
0
  6
Continuous
 62
     7
370
    25
100
AcDbCircle
 10
-21.8413732394
 20
-26.7768779343
 30
0.0
 40
0.5000000000000036
100
AcDbArc
 50
90.0
 51
180.0
  0
ARC
  5
534
330
1F
100
AcDbEntity
  8
0
  6
Continuous
 62
     7
370
    25
100
AcDbCircle
 10
-17.7913732394
 20
-25.7768779343
 30
0.0
 40
0.5
100
AcDbArc
 50
269.9999999999
 51
0.0
  0
ARC
  5
535
330
1F
100
AcDbEntity
  8
0
  6
Continuous
 62
     7
370
    25
100
AcDbCircle
 10
-17.7913732394
 20
-22.255305059
 30
0.0
 40
0.5000000000000191
100
AcDbArc
 50
360.0
 51
45.0
  0
ARC
  5
536
330
1F
100
AcDbEntity
  8
0
  6
Continuous
 62
     7
370
    25
100
AcDbCircle
 10
-22.2764267119
 20
-18.4773583677
 30
0.0
 40
0.9999999999999751
100
AcDbArc
 50
45.0
 51
90.0
  0
ARC
  5
537
330
1F
100
AcDbEntity
  8
0
  6
Continuous
 62
     7
370
    25
100
AcDbCircle
 10
-26.5122849978
 20
-16.9773583677
 30
0.0
 40
0.499999999999897
100
AcDbArc
 50
240.0
 51
270.0
  0
ARC
  5
538
330
1F
100
AcDbEntity
  8
0
  6
Continuous
 62
     7
370
    25
100
AcDbCircle
 10
-27.4413732394
 20
-17.5956495597
 30
0.0
 40
0.5000000000000002
100
AcDbArc
 50
60.0
 51
120.0
  0
ARC
  5
539
330
1F
100
AcDbEntity
  8
0
  6
Continuous
 62
     7
370
    25
100
AcDbCircle
 10
-28.370461481
 20
-16.9773583677
 30
0.0
 40
0.5000000000000959
100
AcDbArc
 50
270.0
 51
300.0
  0
ARC
  5
53A
330
1F
100
AcDbEntity
  8
0
  6
Continuous
 62
     7
370
    25
100
AcDbCircle
 10
-32.6063197669
 20
-18.4773583677
 30
0.0
 40
1.000000000000023
100
AcDbArc
 50
90.0
 51
135.0
  0
ARC
  5
53B
330
1F
100
AcDbEntity
  8
0
  6
Continuous
 62
     7
370
    25
100
AcDbCircle
 10
-37.0913732394
 20
-22.255305059
 30
0.0
 40
0.4999999999999789
100
AcDbArc
 50
135.0
 51
180.0
  0
ARC
  5
53C
330
1F
100
AcDbEntity
  8
0
  6
Continuous
 62
     7
370
    25
100
AcDbCircle
 10
-37.0913732394
 20
-25.7768779343
 30
0.0
 40
0.5000000000000036
100
AcDbArc
 50
180.0
 51
270.0
  0
ARC
  5
53D
330
1F
100
AcDbEntity
  8
0
  6
Continuous
 62
     7
370
    25
100
AcDbCircle
 10
-33.0413732394
 20
-26.7768779343
 30
0.0
 40
0.4999999999999822
100
AcDbArc
 50
0.0
 51
90.0
  0
ARC
  5
53E
330
1F
100
AcDbEntity
  8
0
  6
Continuous
 62
     7
370
    25
100
AcDbCircle
 10
-32.7413732394
 20
-30.5768779343
 30
0.0
 40
0.1999999999999815
100
AcDbArc
 50
270.0
 51
360.0
  0
ARC
  5
53F
330
1F
100
AcDbEntity
  8
0
  6
Continuous
 62
     7
370
    25
100
AcDbCircle
 10
-33.1413732394
 20
-30.9768779343
 30
0.0
 40
0.2000000000000028
100
AcDbArc
 50
90.0
 51
180.0
  0
ARC
  5
540
330
1F
100
AcDbEntity
  8
0
  6
Continuous
 62
     7
370
    25
100
AcDbCircle
 10
-33.8413732394
 20
-31.7768779343
 30
0.0
 40
0.5000000000000071
100
AcDbArc
 50
270.0
 51
359.9999999999
  0
ARC
  5
541
330
1F
100
AcDbEntity
  8
0
  6
Continuous
 62
     7
370
    25
100
AcDbCircle
 10
-46.9413732394
 20
-29.2768779343
 30
0.0
 40
2.999999999999993
100
AcDbArc
 50
180.0
 51
270.0
  0
ARC
  5
542
330
1F
100
AcDbEntity
  8
0
  6
Continuous
 62
     7
370
    25
100
AcDbCircle
 10
-49.4413732394
 20
-16.1768779343
 30
0.0
 40
0.4999999999999716
100
AcDbArc
 50
90.0
 51
180.0
  0
ARC
  5
543
330
1F
100
AcDbEntity
  8
0
  6
Continuous
 62
     7
370
    25
100
AcDbCircle
 10
-48.6413732394
 20
-15.4768779343
 30
0.0
 40
0.2000000000000099
100
AcDbArc
 50
269.9999999999
 51
0.0
  0
ARC
  5
544
330
1F
100
AcDbEntity
  8
0
  6
Continuous
 62
     7
370
    25
100
AcDbCircle
 10
-48.2413732394
 20
-15.0768779343
 30
0.0
 40
0.1999999999999957
100
AcDbArc
 50
90.0
 51
180.0
  0
ARC
  5
545
330
1F
100
AcDbEntity
  8
0
  6
Continuous
 62
     7
370
    25
100
AcDbCircle
 10
-44.4413732394
 20
-15.3768779343
 30
0.0
 40
0.5000000000000213
100
AcDbArc
 50
0.0
 51
90.0
  0
ARC
  5
546
330
1F
100
AcDbEntity
  8
0
  6
Continuous
 62
     7
370
    25
100
AcDbCircle
 10
-43.4413732394
 20
-19.4268779343
 30
0.0
 40
0.5000000000000071
100
AcDbArc
 50
179.9999999999
 51
270.0
  0
ARC
  5
547
330
1F
100
AcDbEntity
  8
0
  6
Continuous
 62
     7
370
    25
100
AcDbCircle
 10
-39.9198003642
 20
-19.4268779343
 30
0.0
 40
0.5000000000000744
100
AcDbArc
 50
270.0
 51
315.0
  0
ARC
  5
548
330
1F
100
AcDbEntity
  8
0
  6
Continuous
 62
     7
370
    25
100
AcDbCircle
 10
-36.1418536729
 20
-14.9418244618
 30
0.0
 40
0.9999999999999218
100
AcDbArc
 50
315.0
 51
0.0
  0
ARC
  5
549
330
1F
100
AcDbEntity
  8
0
  6
Continuous
 62
     7
370
    25
100
AcDbCircle
 10
-34.6418536729
 20
-10.7059661759
 30
0.0
 40
0.500000000000064
100
AcDbArc
 50
150.0
 51
180.0
  0
ARC
  5
54A
330
1F
100
AcDbEntity
  8
0
  6
Continuous
 62
     7
370
    25
100
AcDbCircle
 10
-35.2601448649
 20
-9.7768779343
 30
0.0
 40
0.5000000000000075
100
AcDbArc
 50
330.0
 51
30.0
  0
ARC
  5
54B
330
1F
100
AcDbEntity
  8
0
  6
Continuous
 62
     7
370
    25
100
AcDbCircle
 10
-34.6418536729
 20
-8.8477896927
 30
0.0
 40
0.4999999999998392
100
AcDbArc
 50
180.0
 51
210.0
  0
ARC
  5
54C
330
1F
100
AcDbEntity
  8
0
  6
Continuous
 62
     7
370
    25
100
AcDbCircle
 10
-36.1418536729
 20
-4.6119314068
 30
0.0
 40
1.000000000000007
100
AcDbArc
 50
360.0
 51
45.0
  0
ARC
  5
54D
330
1F
100
AcDbEntity
  8
0
  6
Continuous
 62
     7
370
    25
100
AcDbCircle
 10
-39.9198003642
 20
-0.1268779343
 30
0.0
 40
0.4999999999999379
100
AcDbArc
 50
45.0
 51
90.0
  0
ARC
  5
54E
330
1F
100
AcDbEntity
  8
0
  6
Continuous
 62
     7
370
    25
100
AcDbCircle
 10
-43.4413732394
 20
-0.1268779343
 30
0.0
 40
0.5000000000000142
100
AcDbArc
 50
90.0
 51
180.0
  0
ARC
  5
54F
330
1F
100
AcDbEntity
  8
0
  6
Continuous
 62
     7
370
    25
100
AcDbCircle
 10
-44.4413732394
 20
-4.1768779343
 30
0.0
 40
0.5000000000000142
100
AcDbArc
 50
270.0
 51
360.0
  0
ARC
  5
550
330
1F
100
AcDbEntity
  8
0
  6
Continuous
 62
     7
370
    25
100
AcDbCircle
 10
-48.2413732394
 20
-4.4768779343
 30
0.0
 40
0.2000000000000037
100
AcDbArc
 50
180.0
 51
270.0
  0
ARC
  5
551
330
1F
100
AcDbEntity
  8
0
  6
Continuous
 62
     7
370
    25
100
AcDbCircle
 10
-48.6413732394
 20
-4.0768779343
 30
0.0
 40
0.2000000000000171
100
AcDbArc
 50
0.0
 51
90.0
  0
ARC
  5
552
330
1F
100
AcDbEntity
  8
0
  6
Continuous
 62
     7
370
    25
100
AcDbCircle
 10
-49.4413732394
 20
-3.3768779343
 30
0.0
 40
0.4999999999999889
100
AcDbArc
 50
180.0
 51
270.0
  0
ARC
  5
553
330
1F
100
AcDbEntity
  8
0
  6
Continuous
 62
     7
370
    25
100
AcDbCircle
 10
-49.4413732394
 20
3.7231220657
 30
0.0
 40
0.5
100
AcDbArc
 50
90.0
 51
180.0
  0
ARC
  5
554
330
1F
100
AcDbEntity
  8
0
  6
Continuous
 62
     7
370
    25
100
AcDbCircle
 10
-49.1413732394
 20
4.4231220657
 30
0.0
 40
0.1999999999999895
100
AcDbArc
 50
270.0000000003
 51
360.0
  0
ARC
  5
555
330
1F
100
AcDbEntity
  8
0
  6
Continuous
 62
     7
370
    25
100
AcDbCircle
 10
-49.1413732394
 20
21.0231220657
 30
0.0
 40
0.2000000000000028
100
AcDbArc
 50
0.0
 51
90.0
  0
ARC
  5
556
330
1F
100
AcDbEntity
  8
0
  6
Continuous
 62
     7
370
    25
100
AcDbCircle
 10
-49.4413732394
 20
21.7231220657
 30
0.0
 40
0.5000000000000071
100
AcDbArc
 50
180.0
 51
270.0
  0
ARC
  5
557
330
1F
100
AcDbEntity
  8
0
  6
Continuous
 62
     7
370
    25
100
AcDbCircle
 10
8.8581463271
 20
31.123482381
 30
0.0
 40
1.000000000000002
100
AcDbArc
 50
233.1315983617
 51
0.0
  0
ARC
  5
558
330
1F
100
AcDbEntity
  8
0
  6
Continuous
 62
     7
370
    25
100
AcDbCircle
 10
10.3581463271
 20
34.2940338241
 30
0.0
 40
0.5
100
AcDbArc
 50
150.0
 51
180.0
  0
ARC
  5
559
330
1F
100
AcDbEntity
  8
0
  6
Continuous
 62
     7
370
    25
100
AcDbCircle
 10
9.7398551351
 20
35.2231220657
 30
0.0
 40
0.4999999999999872
100
AcDbArc
 50
330.0
 51
30.0
  0
ARC
  5
55A
330
1F
100
AcDbEntity
  8
0
  6
Continuous
 62
     7
370
    25
100
AcDbCircle
 10
10.3581463271
 20
36.1522103073
 30
0.0
 40
0.5000000000001122
100
AcDbArc
 50
180.0
 51
210.0
  0
ARC
  5
55B
330
1F
100
AcDbEntity
  8
0
  6
Continuous
 62
     7
370
    25
100
AcDbCircle
 10
8.8581463271
 20
40.3880685932
 30
0.0
 40
1.000000000000034
100
AcDbArc
 50
0.0
 51
45.0
  0
ARC
  5
55C
330
1F
100
AcDbEntity
  8
0
  6
Continuous
 62
     7
370
    25
100
AcDbCircle
 10
5.7086267606
 20
45.6589085034
 30
0.0
 40
0.5000000000000293
100
AcDbArc
 50
180.0
 51
225.0
  0
ARC
  5
55D
330
1F
100
AcDbEntity
  8
0
  6
Continuous
 62
     7
370
    25
100
AcDbCircle
 10
4.7086267606
 20
51.5900857426
 30
0.0
 40
0.4999999999999994
100
AcDbArc
 50
0.0
 51
59.4762993074
  0
ARC
  5
55E
330
1F
100
AcDbEntity
  8
0
  6
Continuous
 62
     7
370
    25
100
AcDbCircle
 10
-4.9413732394
 20
35.2231220657
 30
0.0
 40
19.50000000000008
100
AcDbArc
 50
59.4762993074
 51
120.5237006926
  0
ARC
  5
55F
330
1F
100
AcDbEntity
  8
0
  6
Continuous
 62
     7
370
    25
100
AcDbCircle
 10
-14.5913732394
 20
51.5900857426
 30
0.0
 40
0.5000000000000231
100
AcDbArc
 50
120.5237006926
 51
180.0
  0
ARC
  5
560
330
1F
100
AcDbEntity
  8
0
  6
Continuous
 62
     7
370
    25
100
AcDbCircle
 10
-15.5913732394
 20
45.6589085034
 30
0.0
 40
0.500000000001048
100
AcDbArc
 50
315.0
 51
360.0
  0
ARC
  5
561
330
1F
100
AcDbEntity
  8
0
  6
Continuous
 62
     7
370
    25
100
AcDbCircle
 10
-18.740892806
 20
40.3880685932
 30
0.0
 40
0.9999999999999787
100
AcDbArc
 50
135.0
 51
180.0
  0
ARC
  5
562
330
1F
100
AcDbEntity
  8
0
  6
Continuous
 62
     7
370
    25
100
AcDbCircle
 10
-20.240892806
 20
36.1522103073
 30
0.0
 40
0.4999999999999328
100
AcDbArc
 50
330.0
 51
0.0
  0
ARC
  5
563
330
1F
100
AcDbEntity
  8
0
  6
Continuous
 62
     7
370
    25
100
AcDbCircle
 10
-19.622601614
 20
35.2231220657
 30
0.0
 40
0.4999999999999717
100
AcDbArc
 50
150.0
 51
210.0
  0
ARC
  5
564
330
1F
100
AcDbEntity
  8
0
  6
Continuous
 62
     7
370
    25
100
AcDbCircle
 10
-20.240892806
 20
34.2940338241
 30
0.0
 40
0.4999999999998659
100
AcDbArc
 50
360.0
 51
30.0
  0
ARC
  5
565
330
1F
100
AcDbEntity
  8
0
  6
Continuous
 62
     7
370
    25
100
AcDbCircle
 10
-18.740892806
 20
31.123482381
 30
0.0
 40
1.000000000000007
100
AcDbArc
 50
180.0
 51
306.8684016383
  0
ARC
  5
566
330
1F
100
AcDbEntity
  8
0
  6
Continuous
 62
     7
370
    25
100
AcDbCircle
 10
-26.5122849978
 20
28.0226416323
 30
0.0
 40
0.500000000000032
100
AcDbArc
 50
240.0
 51
270.0
  0
ARC
  5
567
330
1F
100
AcDbEntity
  8
0
  6
Continuous
 62
     7
370
    25
100
AcDbCircle
 10
-27.4413732394
 20
27.4043504403
 30
0.0
 40
0.5000000000000987
100
AcDbArc
 50
59.9999999999
 51
120.0
  0
ARC
  5
568
330
1F
100
AcDbEntity
  8
0
  6
Continuous
 62
     7
370
    25
100
AcDbCircle
 10
-28.370461481
 20
28.0226416323
 30
0.0
 40
0.5000000000001067
100
AcDbArc
 50
270.0
 51
300.0
  0
ARC
  5
569
330
1F
100
AcDbEntity
  8
0
  6
Continuous
 62
     7
370
    25
100
AcDbCircle
 10
-32.6063197669
 20
26.5226416323
 30
0.0
 40
0.9999999999999645
100
AcDbArc
 50
90.0
 51
135.0
  0
ARC
  5
56A
330
1F
100
AcDbEntity
  8
0
  6
Continuous
 62
     7
370
    25
100
AcDbCircle
 10
-37.8771596771
 20
23.3731220657
 30
0.0
 40
0.5000000000000142
100
AcDbArc
 50
270.0
 51
315.0
  0
ARC
  5
56B
330
1F
100
AcDbEntity
  8
0
  6
Continuous
 62
     7
370
    25
100
AcDbCircle
 10
-43.8083369163
 20
22.3731220657
 30
0.0
 40
0.4999999999999751
100
AcDbArc
 50
90.0
 51
149.4762993074
  0
ARC
  5
56C
330
1F
100
AcDbEntity
  8
0
  6
Continuous
 62
     7
370
    25
100
AcDbCircle
 10
-27.4413732394
 20
12.7231220657
 30
0.0
 40
19.49999999999996
100
AcDbArc
 50
149.4762993074
 51
210.5237006926
  0
ARC
  5
56D
330
1F
100
AcDbEntity
  8
0
  6
Continuous
 62
     7
370
    25
100
AcDbCircle
 10
-43.8083369163
 20
3.0731220657
 30
0.0
 40
0.5000000000000129
100
AcDbArc
 50
210.5237006926
 51
270.0
  0
ARC
  5
56E
330
1F
100
AcDbEntity
  8
0
  6
Continuous
 62
     7
370
    25
100
AcDbCircle
 10
-37.8771596771
 20
2.0731220657
 30
0.0
 40
0.4999999999999126
100
AcDbArc
 50
45.0
 51
90.0
  0
ARC
  5
56F
330
1F
100
AcDbEntity
  8
0
  6
Continuous
 62
     7
370
    25
100
AcDbCircle
 10
-32.6063197669
 20
-1.0763975008
 30
0.0
 40
1.00000000000003
100
AcDbArc
 50
225.0
 51
270.0
  0
ARC
  5
570
330
1F
100
AcDbEntity
  8
0
  6
Continuous
 62
     7
370
    25
100
AcDbCircle
 10
-28.370461481
 20
-2.5763975008
 30
0.0
 40
0.5000000000001519
100
AcDbArc
 50
60.0
 51
90.0
  0
ARC
  5
571
330
1F
100
AcDbEntity
  8
0
  6
Continuous
 62
     7
370
    25
100
AcDbCircle
 10
-27.4413732394
 20
-1.9581063088
 30
0.0
 40
0.4999999999999491
100
AcDbArc
 50
240.0
 51
300.0
  0
ARC
  5
572
330
1F
100
AcDbEntity
  8
0
  6
Continuous
 62
     7
370
    25
100
AcDbCircle
 10
-26.5122849978
 20
-2.5763975008
 30
0.0
 40
0.4999999999996547
100
AcDbArc
 50
90.0
 51
120.0
  0
ARC
  5
573
330
1F
100
AcDbEntity
  8
0
  6
Continuous
 62
     7
370
    25
100
AcDbCircle
 10
-23.3417335547
 20
-1.0763975008
 30
0.0
 40
1.00000000000001
100
AcDbArc
 50
270.0
 51
36.8684016383
  0
ARC
  5
574
330
1F
100
AcDbEntity
  8
0
  6
Continuous
 62
     7
370
    25
100
AcDbCircle
 10
-4.9413732394
 20
12.7231220657
 30
0.0
 40
21.99999999999998
100
AcDbArc
 50
143.1315983617
 51
216.8684016383
  0
ARC
  5
575
330
1F
100
AcDbEntity
  8
0
  6
Continuous
 62
     7
370
    25
100
AcDbCircle
 10
17.5586267606
 20
-1.9581063088
 30
0.0
 40
0.5000000000000102
100
AcDbArc
 50
240.0
 51
300.0
  0
ARC
  5
576
330
1F
100
AcDbEntity
  8
0
  6
Continuous
 62
     7
370
    25
100
AcDbCircle
 10
18.4877150022
 20
-2.5763975008
 30
0.0
 40
0.4999999999999907
100
AcDbArc
 50
90.0
 51
120.0
  0
ARC
  5
577
330
1F
100
AcDbEntity
  8
0
  6
Continuous
 62
     7
370
    25
100
AcDbCircle
 10
22.7235732881
 20
-1.0763975008
 30
0.0
 40
1.000000000000005
100
AcDbArc
 50
270.0
 51
315.0
  0
ARC
  5
578
330
1F
100
AcDbEntity
  8
0
  6
Continuous
 62
     7
370
    25
100
AcDbCircle
 10
27.9944131982
 20
2.0731220657
 30
0.0
 40
0.4999999999999403
100
AcDbArc
 50
90.0
 51
135.0
  0
ARC
  5
579
330
1F
100
AcDbEntity
  8
0
  6
Continuous
 62
     7
370
    25
100
AcDbCircle
 10
33.9255904374
 20
3.0731220657
 30
0.0
 40
0.499999999999984
100
AcDbArc
 50
270.0
 51
329.4762993074
  0
ARC
  5
57A
330
1F
100
AcDbEntity
  8
0
  6
Continuous
 62
     7
370
    25
100
AcDbCircle
 10
17.5586267606
 20
12.7231220657
 30
0.0
 40
19.50000000000006
100
AcDbArc
 50
329.4762993074
 51
30.5237006926
  0
ARC
  5
57B
330
1F
100
AcDbEntity
  8
0
  6
Continuous
 62
     7
370
    25
100
AcDbCircle
 10
33.9255904374
 20
22.3731220657
 30
0.0
 40
0.4999999999999964
100
AcDbArc
 50
30.5237006926
 51
90.0
  0
ARC
  5
57C
330
1F
100
AcDbEntity
  8
0
  6
Continuous
 62
     7
370
    25
100
AcDbCircle
 10
27.9944131982
 20
23.3731220657
 30
0.0
 40
0.4999999999999513
100
AcDbArc
 50
225.0
 51
270.0
  0
ARC
  5
57D
330
1F
100
AcDbEntity
  8
0
  6
Continuous
 62
     7
370
    25
100
AcDbCircle
 10
22.7235732881
 20
26.5226416323
 30
0.0
 40
1.000000000000093
100
AcDbArc
 50
45.0
 51
90.0
  0
ARC
  5
57E
330
1F
100
AcDbEntity
  8
0
  6
Continuous
 62
     7
370
    25
100
AcDbCircle
 10
18.4877150022
 20
28.0226416323
 30
0.0
 40
0.5000000000000497
100
AcDbArc
 50
240.0
 51
270.0
  0
ARC
  5
57F
330
1F
100
AcDbEntity
  8
0
  6
Continuous
 62
     7
370
    25
100
AcDbCircle
 10
17.5586267606
 20
27.4043504403
 30
0.0
 40
0.5000000000000199
100
AcDbArc
 50
60.0
 51
120.0
  0
ARC
  5
580
330
1F
100
AcDbEntity
  8
0
  6
Continuous
 62
     7
370
    25
100
AcDbCircle
 10
16.629538519
 20
28.0226416323
 30
0.0
 40
0.4999999999999267
100
AcDbArc
 50
270.0
 51
300.0
  0
ARC
  5
581
330
1F
100
AcDbEntity
  8
0
  6
Continuous
 62
     7
370
    25
100
AcDbCircle
 10
13.4589870758
 20
26.5226416323
 30
0.0
 40
1.000000000000005
100
AcDbArc
 50
90.0
 51
216.8684016383
  0
ARC
  5
582
330
1F
100
AcDbEntity
  8
0
  6
Continuous
 62
     7
370
    25
100
AcDbCircle
 10
-4.9413732394
 20
12.7231220657
 30
0.0
 40
22.00000000000005
100
AcDbArc
 50
323.1315983617
 51
36.8684016383
  0
ARC
  5
583
330
1F
100
AcDbEntity
  8
0
  6
Continuous
 62
     7
370
    25
100
AcDbCircle
 10
13.4589870758
 20
-1.0763975008
 30
0.0
 40
0.9999999999999998
100
AcDbArc
 50
143.1315983617
 51
270.0
  0
ENDSEC
  0
SECTION
  2
OBJECTS
  0
DICTIONARY
  5
C
330
0
100
AcDbDictionary
281
     1
  3
ACAD_GROUP
350
D
  3
ACAD_LAYOUT
350
1A
  3
ACAD_MLINESTYLE
350
17
  3
ACAD_PLOTSETTINGS
350
19
  3
ACAD_PLOTSTYLENAME
350
E
  3
ACAD_SCALELIST
350
47
  0
DICTIONARY
  5
D
102
{ACAD_REACTORS
330
C
102
}
330
C
100
AcDbDictionary
281
     1
  0
DICTIONARY
  5
1A
102
{ACAD_REACTORS
330
C
102
}
330
C
100
AcDbDictionary
281
     1
  3
Layout1
350
1E
  3
Layout2
350
26
  3
Model
350
22
  0
DICTIONARY
  5
17
102
{ACAD_REACTORS
330
C
102
}
330
C
100
AcDbDictionary
281
     1
  3
Standard
350
18
  0
DICTIONARY
  5
19
102
{ACAD_REACTORS
330
C
102
}
330
C
100
AcDbDictionary
281
     1
  0
ACDBDICTIONARYWDFLT
  5
E
102
{ACAD_REACTORS
330
C
102
}
330
C
100
AcDbDictionary
281
     1
  3
Normal
350
F
100
AcDbDictionaryWithDefault
340
F
  0
DICTIONARY
  5
47
102
{ACAD_REACTORS
330
C
102
}
330
C
100
AcDbDictionary
281
     1
  3
A0
350
48
  3
A1
350
49
  3
A2
350
4A
  3
A3
350
4B
  3
A4
350
4C
  3
A5
350
4D
  3
A6
350
4E
  3
A7
350
4F
  3
A8
350
50
  3
A9
350
51
  3
B0
350
52
  3
B1
350
53
  3
B2
350
54
  3
B3
350
55
  3
B4
350
56
  3
B5
350
57
  3
B6
350
58
  3
B7
350
59
  3
B8
350
5A
  3
B9
350
5B
  3
C0
350
5C
  3
C1
350
5D
  3
C2
350
5E
  3
C3
350
5F
  3
C4
350
60
  3
C5
350
61
  3
C6
350
62
  3
C7
350
63
  3
C8
350
64
  3
C9
350
65
  3
D0
350
66
  3
D1
350
67
  3
D2
350
68
  0
LAYOUT
  5
1E
102
{ACAD_REACTORS
330
1A
102
}
330
1A
100
AcDbPlotSettings
  1

  2
none_device
  4

  6

 40
0.0
 41
0.0
 42
0.0
 43
0.0
 44
0.0
 45
0.0
 46
0.0
 47
0.0
 48
0.0
 49
0.0
140
0.0
141
0.0
142
1.0
143
1.0
 70
   688
 72
     1
 73
     0
 74
     5
  7

 75
    16
147
1.0
148
0.0
149
0.0
100
AcDbLayout
  1
Layout1
 70
     1
 71
     1
 10
0.0
 20
0.0
 11
420.0
 21
297.0
 12
0.0
 22
0.0
 32
0.0
 14
1.0000000000E+20
 24
1.0000000000E+20
 34
1.0000000000E+20
 15
-1.0000000000E+20
 25
-1.0000000000E+20
 35
-1.0000000000E+20
146
0.0
 13
0.0
 23
0.0
 33
0.0
 16
1.0
 26
0.0
 36
0.0
 17
0.0
 27
1.0
 37
0.0
 76
     0
330
1B
  0
LAYOUT
  5
26
102
{ACAD_REACTORS
330
1A
102
}
330
1A
100
AcDbPlotSettings
  1

  2
none_device
  4

  6

 40
0.0
 41
0.0
 42
0.0
 43
0.0
 44
0.0
 45
0.0
 46
0.0
 47
0.0
 48
0.0
 49
0.0
140
0.0
141
0.0
142
1.0
143
1.0
 70
   688
 72
     1
 73
     0
 74
     5
  7

 75
    16
147
1.0
148
0.0
149
0.0
100
AcDbLayout
  1
Layout2
 70
     1
 71
     2
 10
0.0
 20
0.0
 11
0.0
 21
0.0
 12
0.0
 22
0.0
 32
0.0
 14
0.0
 24
0.0
 34
0.0
 15
0.0
 25
0.0
 35
0.0
146
0.0
 13
0.0
 23
0.0
 33
0.0
 16
1.0
 26
0.0
 36
0.0
 17
0.0
 27
1.0
 37
0.0
 76
     0
330
23
  0
LAYOUT
  5
22
102
{ACAD_REACTORS
330
1A
102
}
330
1A
100
AcDbPlotSettings
  1

  2
none_device
  4
ANSI_A_(11.00_x_8.50_Inches)
  6

 40
6.35
 41
19.05
 42
6.35000508
 43
19.05000254
 44
279.4
 45
215.9
 46
145.0852647663
 47
58.6838561361
 48
0.0
 49
0.0
140
0.0
141
0.0
142
0.0935
143
1.0
 70
  1696
 72
     0
 73
     0
 74
     0
  7

 75
     0
147
0.0179189148
148
-1300.4909072572
149
0.0
100
AcDbLayout
  1
Model
 70
     1
 71
     0
 10
0.0
 20
0.0
 11
420.0
 21
297.0
 12
0.0
 22
0.0
 32
0.0
 14
-49.9413732394
 24
-32.2768779343
 34
0.0
 15
40.0586267606
 25
57.7231220657
 35
0.0
146
0.0
 13
0.0
 23
0.0
 33
0.0
 16
1.0
 26
0.0
 36
0.0
 17
0.0
 27
1.0
 37
0.0
 76
     0
330
1F
331
29
  0
MLINESTYLE
  5
18
102
{ACAD_REACTORS
330
17
102
}
330
17
100
AcDbMlineStyle
  2
Standard
 70
     0
  3

 62
   256
 51
90.0
 52
90.0
 71
     2
 49
0.5
 62
   256
  6
BYLAYER
 49
-0.5
 62
   256
  6
BYLAYER
  0
ACDBPLACEHOLDER
  5
F
102
{ACAD_REACTORS
330
E
102
}
330
E
  0
SCALE
  5
48
102
{ACAD_REACTORS
330
47
102
}
330
47
100
AcDbScale
 70
     0
300
1:1
140
1.0
141
1.0
290
     1
  0
SCALE
  5
49
102
{ACAD_REACTORS
330
47
102
}
330
47
100
AcDbScale
 70
     0
300
1:2
140
1.0
141
2.0
290
     0
  0
SCALE
  5
4A
102
{ACAD_REACTORS
330
47
102
}
330
47
100
AcDbScale
 70
     0
300
1:4
140
1.0
141
4.0
290
     0
  0
SCALE
  5
4B
102
{ACAD_REACTORS
330
47
102
}
330
47
100
AcDbScale
 70
     0
300
1:5
140
1.0
141
5.0
290
     0
  0
SCALE
  5
4C
102
{ACAD_REACTORS
330
47
102
}
330
47
100
AcDbScale
 70
     0
300
1:8
140
1.0
141
8.0
290
     0
  0
SCALE
  5
4D
102
{ACAD_REACTORS
330
47
102
}
330
47
100
AcDbScale
 70
     0
300
1:10
140
1.0
141
10.0
290
     0
  0
SCALE
  5
4E
102
{ACAD_REACTORS
330
47
102
}
330
47
100
AcDbScale
 70
     0
300
1:16
140
1.0
141
16.0
290
     0
  0
SCALE
  5
4F
102
{ACAD_REACTORS
330
47
102
}
330
47
100
AcDbScale
 70
     0
300
1:20
140
1.0
141
20.0
290
     0
  0
SCALE
  5
50
102
{ACAD_REACTORS
330
47
102
}
330
47
100
AcDbScale
 70
     0
300
1:30
140
1.0
141
30.0
290
     0
  0
SCALE
  5
51
102
{ACAD_REACTORS
330
47
102
}
330
47
100
AcDbScale
 70
     0
300
1:40
140
1.0
141
40.0
290
     0
  0
SCALE
  5
52
102
{ACAD_REACTORS
330
47
102
}
330
47
100
AcDbScale
 70
     0
300
1:50
140
1.0
141
50.0
290
     0
  0
SCALE
  5
53
102
{ACAD_REACTORS
330
47
102
}
330
47
100
AcDbScale
 70
     0
300
1:100
140
1.0
141
100.0
290
     0
  0
SCALE
  5
54
102
{ACAD_REACTORS
330
47
102
}
330
47
100
AcDbScale
 70
     0
300
2:1
140
2.0
141
1.0
290
     0
  0
SCALE
  5
55
102
{ACAD_REACTORS
330
47
102
}
330
47
100
AcDbScale
 70
     0
300
4:1
140
4.0
141
1.0
290
     0
  0
SCALE
  5
56
102
{ACAD_REACTORS
330
47
102
}
330
47
100
AcDbScale
 70
     0
300
8:1
140
8.0
141
1.0
290
     0
  0
SCALE
  5
57
102
{ACAD_REACTORS
330
47
102
}
330
47
100
AcDbScale
 70
     0
300
10:1
140
10.0
141
1.0
290
     0
  0
SCALE
  5
58
102
{ACAD_REACTORS
330
47
102
}
330
47
100
AcDbScale
 70
     0
300
100:1
140
100.0
141
1.0
290
     0
  0
SCALE
  5
59
102
{ACAD_REACTORS
330
47
102
}
330
47
100
AcDbScale
 70
     0
300
1/128" = 1'-0"
140
0.0078125
141
12.0
290
     0
  0
SCALE
  5
5A
102
{ACAD_REACTORS
330
47
102
}
330
47
100
AcDbScale
 70
     0
300
1/64" = 1'-0"
140
0.015625
141
12.0
290
     0
  0
SCALE
  5
5B
102
{ACAD_REACTORS
330
47
102
}
330
47
100
AcDbScale
 70
     0
300
1/32" = 1'-0"
140
0.03125
141
12.0
290
     0
  0
SCALE
  5
5C
102
{ACAD_REACTORS
330
47
102
}
330
47
100
AcDbScale
 70
     0
300
1/16" = 1'-0"
140
0.0625
141
12.0
290
     0
  0
SCALE
  5
5D
102
{ACAD_REACTORS
330
47
102
}
330
47
100
AcDbScale
 70
     0
300
3/32" = 1'-0"
140
0.09375
141
12.0
290
     0
  0
SCALE
  5
5E
102
{ACAD_REACTORS
330
47
102
}
330
47
100
AcDbScale
 70
     0
300
1/8" = 1'-0"
140
0.125
141
12.0
290
     0
  0
SCALE
  5
5F
102
{ACAD_REACTORS
330
47
102
}
330
47
100
AcDbScale
 70
     0
300
3/16" = 1'-0"
140
0.1875
141
12.0
290
     0
  0
SCALE
  5
60
102
{ACAD_REACTORS
330
47
102
}
330
47
100
AcDbScale
 70
     0
300
1/4" = 1'-0"
140
0.25
141
12.0
290
     0
  0
SCALE
  5
61
102
{ACAD_REACTORS
330
47
102
}
330
47
100
AcDbScale
 70
     0
300
3/8" = 1'-0"
140
0.375
141
12.0
290
     0
  0
SCALE
  5
62
102
{ACAD_REACTORS
330
47
102
}
330
47
100
AcDbScale
 70
     0
300
1/2" = 1'-0"
140
0.5
141
12.0
290
     0
  0
SCALE
  5
63
102
{ACAD_REACTORS
330
47
102
}
330
47
100
AcDbScale
 70
     0
300
3/4" = 1'-0"
140
0.75
141
12.0
290
     0
  0
SCALE
  5
64
102
{ACAD_REACTORS
330
47
102
}
330
47
100
AcDbScale
 70
     0
300
1" = 1'-0"
140
1.0
141
12.0
290
     0
  0
SCALE
  5
65
102
{ACAD_REACTORS
330
47
102
}
330
47
100
AcDbScale
 70
     0
300
1-1/2" = 1'-0"
140
1.5
141
12.0
290
     0
  0
SCALE
  5
66
102
{ACAD_REACTORS
330
47
102
}
330
47
100
AcDbScale
 70
     0
300
3" = 1'-0"
140
3.0
141
12.0
290
     0
  0
SCALE
  5
67
102
{ACAD_REACTORS
330
47
102
}
330
47
100
AcDbScale
 70
     0
300
6" = 1'-0"
140
6.0
141
12.0
290
     0
  0
SCALE
  5
68
102
{ACAD_REACTORS
330
47
102
}
330
47
100
AcDbScale
 70
     0
300
1'-0" = 1'-0"
140
12.0
141
12.0
290
     0
  0
ENDSEC
  0
EOF
