ISO-10303-21;
HEADER;
FILE_DESCRIPTION (( 'STEP AP203' ),
    '1' );
FILE_NAME ('Ñòåëëàæíûé ïðîôèëü 20õ26 Ð-îáðàçíûé.STEP',
    '2022-12-20T09:05:22',
    ( '' ),
    ( '' ),
    'SwSTEP 2.0',
    'SolidWorks 2022',
    '' );
FILE_SCHEMA (( 'CONFIG_CONTROL_DESIGN' ));
ENDSEC;

DATA;
#1 = CARTESIAN_POINT ( 'NONE',  ( -8.499999999999992895, 8.499999999999998224, -500.0000000000000000 ) ) ;
#2 = EDGE_LOOP ( 'NONE', ( #8, #71, #52, #235 ) ) ;
#3 = DIRECTION ( 'NONE',  ( 2.891205793294679312E-16, -1.000000000000000000, 0.000000000000000000 ) ) ;
#4 = VERTEX_POINT ( 'NONE', #357 ) ;
#5 = CARTESIAN_POINT ( 'NONE',  ( -8.499999999999992895, -8.500000000000003553, 500.0000000000000000 ) ) ;
#6 = VECTOR ( 'NONE', #172, 1000.000000000000000 ) ;
#7 = ADVANCED_FACE ( 'NONE', ( #81 ), #119, .F. ) ;
#8 = ORIENTED_EDGE ( 'NONE', *, *, #105, .F. ) ;
#9 = DIRECTION ( 'NONE',  ( 1.875376730785737473E-16, -1.000000000000000000, 0.000000000000000000 ) ) ;
#10 = SHAPE_DEFINITION_REPRESENTATION ( #25, #16 ) ;
#11 = VERTEX_POINT ( 'NONE', #354 ) ;
#12 = DIRECTION ( 'NONE',  ( -2.891205793294679312E-16, 1.000000000000000000, -0.000000000000000000 ) ) ;
#13 = PLANE ( 'NONE',  #21 ) ;
#14 = CARTESIAN_POINT ( 'NONE',  ( 10.00000000000000711, -10.00000000000000355, 500.0000000000000000 ) ) ;
#15 = AXIS2_PLACEMENT_3D ( 'NONE', #332, #127, #261 ) ;
#16 = ADVANCED_BREP_SHAPE_REPRESENTATION ( '\X2\042104420435043b043b04300436043d044b0439\X0\ \X2\043f0440043e04440438043b044c\X0\ 20\X2\0445\X0\26 \X2\0420\X0\-\X2\043e0431044004300437043d044b0439\X0\', ( #92, #171 ), #343 ) ;
#17 = APPLICATION_CONTEXT ( 'configuration controlled 3d designs of mechanical parts and assemblies' ) ;
#18 = COORDINATED_UNIVERSAL_TIME_OFFSET ( 3, 0, .AHEAD. ) ;
#19 = PERSON_AND_ORGANIZATION ( #45, #419 ) ;
#20 = DIRECTION ( 'NONE',  ( 0.000000000000000000, -0.000000000000000000, 1.000000000000000000 ) ) ;
#21 = AXIS2_PLACEMENT_3D ( 'NONE', #381, #320, #80 ) ;
#22 = EDGE_CURVE ( 'NONE', #333, #387, #252, .T. ) ;
#23 = PERSON_AND_ORGANIZATION_ROLE ( 'design_owner' ) ;
#24 = EDGE_CURVE ( 'NONE', #11, #246, #254, .T. ) ;
#25 = PRODUCT_DEFINITION_SHAPE ( 'NONE', 'NONE',  #195 ) ;
#26 = CARTESIAN_POINT ( 'NONE',  ( -9.999999999999992895, -10.00000000000000355, -500.0000000000000000 ) ) ;
#27 = APPROVAL_STATUS ( 'not_yet_approved' ) ;
#28 = PLANE ( 'NONE',  #15 ) ;
#29 = CALENDAR_DATE ( 2022, 20, 12 ) ;
#30 = ORIENTED_EDGE ( 'NONE', *, *, #35, .T. ) ;
#31 = FACE_OUTER_BOUND ( 'NONE', #83, .T. ) ;
#32 = VECTOR ( 'NONE', #389, 1000.000000000000000 ) ;
#33 = ORIENTED_EDGE ( 'NONE', *, *, #146, .T. ) ;
#34 = LINE ( 'NONE', #403, #425 ) ;
#35 = EDGE_CURVE ( 'NONE', #246, #369, #183, .T. ) ;
#36 = CARTESIAN_POINT ( 'NONE',  ( 10.00000000000000711, 9.999999999999998224, 500.0000000000000000 ) ) ;
#37 = LINE ( 'NONE', #268, #292 ) ;
#38 = ORIENTED_EDGE ( 'NONE', *, *, #290, .T. ) ;
#39 = LINE ( 'NONE', #379, #271 ) ;
#40 = VECTOR ( 'NONE', #270, 1000.000000000000000 ) ;
#41 = VERTEX_POINT ( 'NONE', #53 ) ;
#42 = CARTESIAN_POINT ( 'NONE',  ( -8.499999999999992895, -8.500000000000003553, -500.0000000000000000 ) ) ;
#43 = VERTEX_POINT ( 'NONE', #289 ) ;
#44 = CARTESIAN_POINT ( 'NONE',  ( -8.499999999999991118, 9.999999999999994671, -500.0000000000000000 ) ) ;
#45 = PERSON ( 'UNSPECIFIED', 'UNSPECIFIED', 'UNSPECIFIED', ('UNSPECIFIED'), ('UNSPECIFIED'), ('UNSPECIFIED') ) ;
#46 = ORIENTED_EDGE ( 'NONE', *, *, #105, .T. ) ;
#47 = LINE ( 'NONE', #429, #194 ) ;
#48 = APPROVAL ( #365, 'UNSPECIFIED' ) ;
#49 = VERTEX_POINT ( 'NONE', #120 ) ;
#50 = ORIENTED_EDGE ( 'NONE', *, *, #316, .T. ) ;
#51 = ORIENTED_EDGE ( 'NONE', *, *, #404, .F. ) ;
#52 = ORIENTED_EDGE ( 'NONE', *, *, #404, .T. ) ;
#53 = CARTESIAN_POINT ( 'NONE',  ( -9.999999999999992895, -10.00000000000000355, 500.0000000000000000 ) ) ;
#54 = AXIS2_PLACEMENT_3D ( 'NONE', #338, #347, #3 ) ;
#55 = DATE_AND_TIME ( #29, #69 ) ;
#56 = CARTESIAN_POINT ( 'NONE',  ( -8.499999999999992895, -8.500000000000003553, 500.0000000000000000 ) ) ;
#57 = DIRECTION ( 'NONE',  ( 0.000000000000000000, 0.000000000000000000, 1.000000000000000000 ) ) ;
#58 = DIRECTION ( 'NONE',  ( 1.000000000000000000, 0.000000000000000000, 0.000000000000000000 ) ) ;
#59 = APPROVAL_ROLE ( '' ) ;
#60 = CARTESIAN_POINT ( 'NONE',  ( 10.00000000000000711, -10.00000000000000355, 500.0000000000000000 ) ) ;
#61 = APPROVAL_DATE_TIME ( #152, #48 ) ;
#62 = FACE_OUTER_BOUND ( 'NONE', #203, .T. ) ;
#63 = DIRECTION ( 'NONE',  ( 1.020425574104004122E-16, -1.000000000000000000, 0.000000000000000000 ) ) ;
#64 = ORIENTED_EDGE ( 'NONE', *, *, #436, .T. ) ;
#65 = DIRECTION ( 'NONE',  ( -1.020425574104004122E-16, 1.000000000000000000, 0.000000000000000000 ) ) ;
#66 = EDGE_CURVE ( 'NONE', #369, #169, #393, .T. ) ;
#67 = VECTOR ( 'NONE', #391, 1000.000000000000000 ) ;
#68 = EDGE_LOOP ( 'NONE', ( #345, #51, #311, #108 ) ) ;
#69 = LOCAL_TIME ( 12, 5, 22.00000000000000000, #197 ) ;
#70 = DIRECTION ( 'NONE',  ( -0.000000000000000000, -0.000000000000000000, -1.000000000000000000 ) ) ;
#71 = ORIENTED_EDGE ( 'NONE', *, *, #378, .F. ) ;
#72 = CARTESIAN_POINT ( 'NONE',  ( -9.999999999999992895, -10.00000000000000355, -500.0000000000000000 ) ) ;
#73 = ORIENTED_EDGE ( 'NONE', *, *, #24, .F. ) ;
#74 = DIRECTION ( 'NONE',  ( -0.000000000000000000, -0.000000000000000000, -1.000000000000000000 ) ) ;
#75 = EDGE_LOOP ( 'NONE', ( #346, #216, #64, #33 ) ) ;
#76 = VECTOR ( 'NONE', #58, 1000.000000000000000 ) ;
#77 = VERTEX_POINT ( 'NONE', #56 ) ;
#78 = CARTESIAN_POINT ( 'NONE',  ( 10.00000000000000711, -10.00000000000000355, 500.0000000000000000 ) ) ;
#79 = ORIENTED_EDGE ( 'NONE', *, *, #384, .T. ) ;
#80 = DIRECTION ( 'NONE',  ( 0.000000000000000000, 0.000000000000000000, -1.000000000000000000 ) ) ;
#81 = FACE_OUTER_BOUND ( 'NONE', #184, .T. ) ;
#82 = CC_DESIGN_PERSON_AND_ORGANIZATION_ASSIGNMENT ( #258, #298, ( #385 ) ) ;
#83 = EDGE_LOOP ( 'NONE', ( #222, #380, #116, #420 ) ) ;
#84 = ORIENTED_EDGE ( 'NONE', *, *, #125, .F. ) ;
#85 = FACE_OUTER_BOUND ( 'NONE', #415, .T. ) ;
#86 = PLANE ( 'NONE',  #317 ) ;
#87 = CARTESIAN_POINT ( 'NONE',  ( -9.999999999999992895, 15.99999999999999289, 500.0000000000000000 ) ) ;
#88 = VECTOR ( 'NONE', #122, 1000.000000000000000 ) ;
#89 = CALENDAR_DATE ( 2022, 20, 12 ) ;
#90 = EDGE_CURVE ( 'NONE', #182, #335, #189, .T. ) ;
#91 = LINE ( 'NONE', #99, #149 ) ;
#92 = MANIFOLD_SOLID_BREP ( 'Áîáûøêà-Âûòÿíóòü1', #98 ) ;
#93 = CARTESIAN_POINT ( 'NONE',  ( -9.999999999999992895, 15.99999999999999289, 500.0000000000000000 ) ) ;
#94 = PERSON_AND_ORGANIZATION ( #45, #419 ) ;
#95 = LINE ( 'NONE', #336, #142 ) ;
#96 = AXIS2_PLACEMENT_3D ( 'NONE', #160, #327, #20 ) ;
#97 = COORDINATED_UNIVERSAL_TIME_OFFSET ( 3, 0, .AHEAD. ) ;
#98 = CLOSED_SHELL ( 'NONE', ( #416, #137, #409, #361, #243, #7, #201, #249, #210, #180, #405, #396 ) ) ;
#99 = CARTESIAN_POINT ( 'NONE',  ( -8.499999999999992895, 15.99999999999999289, -500.0000000000000000 ) ) ;
#100 = COORDINATED_UNIVERSAL_TIME_OFFSET ( 3, 0, .AHEAD. ) ;
#101 = DIRECTION ( 'NONE',  ( -2.891205793294679312E-16, 1.000000000000000000, -0.000000000000000000 ) ) ;
#102 = VECTOR ( 'NONE', #285, 1000.000000000000000 ) ;
#103 = VECTOR ( 'NONE', #177, 1000.000000000000000 ) ;
#104 = CARTESIAN_POINT ( 'NONE',  ( -8.499999999999992895, 8.499999999999998224, 500.0000000000000000 ) ) ;
#105 = EDGE_CURVE ( 'NONE', #374, #335, #47, .T. ) ;
#106 = DIRECTION ( 'NONE',  ( -0.000000000000000000, -1.000000000000000000, -0.000000000000000000 ) ) ;
#107 = LINE ( 'NONE', #175, #67 ) ;
#108 = ORIENTED_EDGE ( 'NONE', *, *, #436, .F. ) ;
#109 = CARTESIAN_POINT ( 'NONE',  ( -8.499999999999991118, 9.999999999999994671, 500.0000000000000000 ) ) ;
#110 = LOCAL_TIME ( 12, 5, 22.00000000000000000, #100 ) ;
#111 = VECTOR ( 'NONE', #349, 1000.000000000000000 ) ;
#112 = ORIENTED_EDGE ( 'NONE', *, *, #132, .T. ) ;
#113 = DIRECTION ( 'NONE',  ( -0.000000000000000000, -0.000000000000000000, -1.000000000000000000 ) ) ;
#114 = ORIENTED_EDGE ( 'NONE', *, *, #66, .F. ) ;
#115 = FACE_BOUND ( 'NONE', #68, .T. ) ;
#116 = ORIENTED_EDGE ( 'NONE', *, *, #313, .F. ) ;
#117 = ORIENTED_EDGE ( 'NONE', *, *, #66, .T. ) ;
#118 = DIRECTION ( 'NONE',  ( 1.000000000000000000, 1.875376730785737473E-16, 0.000000000000000000 ) ) ;
#119 = PLANE ( 'NONE',  #301 ) ;
#120 = CARTESIAN_POINT ( 'NONE',  ( -8.499999999999992895, 8.499999999999998224, 500.0000000000000000 ) ) ;
#121 = DATE_AND_TIME ( #423, #251 ) ;
#122 = DIRECTION ( 'NONE',  ( 1.000000000000000000, 0.000000000000000000, 0.000000000000000000 ) ) ;
#123 = AXIS2_PLACEMENT_3D ( 'NONE', #399, #299, #231 ) ;
#124 = SECURITY_CLASSIFICATION_LEVEL ( 'unclassified' ) ;
#125 = EDGE_CURVE ( 'NONE', #169, #41, #196, .T. ) ;
#126 = PLANE ( 'NONE',  #236 ) ;
#127 = DIRECTION ( 'NONE',  ( 0.000000000000000000, 0.000000000000000000, 1.000000000000000000 ) ) ;
#128 = APPROVAL_ROLE ( '' ) ;
#129 = DIRECTION ( 'NONE',  ( 0.000000000000000000, -1.000000000000000000, 0.000000000000000000 ) ) ;
#130 = LINE ( 'NONE', #157, #218 ) ;
#131 = EDGE_LOOP ( 'NONE', ( #352, #348, #309, #283, #377, #322 ) ) ;
#132 = EDGE_CURVE ( 'NONE', #4, #372, #234, .T. ) ;
#133 = ORIENTED_EDGE ( 'NONE', *, *, #22, .F. ) ;
#134 = CARTESIAN_POINT ( 'NONE',  ( -9.999999999999992895, -10.00000000000000355, 500.0000000000000000 ) ) ;
#135 = LOCAL_TIME ( 12, 5, 22.00000000000000000, #97 ) ;
#136 = EDGE_LOOP ( 'NONE', ( #138, #434, #382, #302 ) ) ;
#137 = ADVANCED_FACE ( 'NONE', ( #366, #400 ), #28, .F. ) ;
#138 = ORIENTED_EDGE ( 'NONE', *, *, #181, .T. ) ;
#139 = DIRECTION ( 'NONE',  ( -0.000000000000000000, -0.000000000000000000, -1.000000000000000000 ) ) ;
#140 = ORIENTED_EDGE ( 'NONE', *, *, #305, .F. ) ;
#141 = ORIENTED_EDGE ( 'NONE', *, *, #90, .F. ) ;
#142 = VECTOR ( 'NONE', #293, 1000.000000000000000 ) ;
#143 = VERTEX_POINT ( 'NONE', #427 ) ;
#144 = ORIENTED_EDGE ( 'NONE', *, *, #340, .F. ) ;
#145 = LINE ( 'NONE', #315, #103 ) ;
#146 = EDGE_CURVE ( 'NONE', #77, #250, #95, .T. ) ;
#147 = ORIENTED_EDGE ( 'NONE', *, *, #224, .T. ) ;
#148 = CARTESIAN_POINT ( 'NONE',  ( -9.999999999999992895, 15.99999999999999289, -500.0000000000000000 ) ) ;
#149 = VECTOR ( 'NONE', #101, 1000.000000000000000 ) ;
#150 = CARTESIAN_POINT ( 'NONE',  ( -8.499999999999991118, 9.999999999999994671, 500.0000000000000000 ) ) ;
#151 = CC_DESIGN_PERSON_AND_ORGANIZATION_ASSIGNMENT ( #19, #426, ( #385 ) ) ;
#152 = DATE_AND_TIME ( #428, #110 ) ;
#153 = CC_DESIGN_PERSON_AND_ORGANIZATION_ASSIGNMENT ( #94, #23, ( #386 ) ) ;
#154 = FACE_OUTER_BOUND ( 'NONE', #2, .T. ) ;
#155 = LINE ( 'NONE', #164, #88 ) ;
#156 = DATE_TIME_ROLE ( 'classification_date' ) ;
#157 = CARTESIAN_POINT ( 'NONE',  ( -8.499999999999992895, -8.500000000000003553, -500.0000000000000000 ) ) ;
#158 = PERSON_AND_ORGANIZATION_ROLE ( 'creator' ) ;
#159 = VERTEX_POINT ( 'NONE', #200 ) ;
#160 = CARTESIAN_POINT ( 'NONE',  ( -9.999999999999992895, -10.00000000000000355, 500.0000000000000000 ) ) ;
#161 = CC_DESIGN_APPROVAL ( #48, ( #195 ) ) ;
#162 = CC_DESIGN_APPROVAL ( #168, ( #385 ) ) ;
#163 = ORIENTED_EDGE ( 'NONE', *, *, #305, .T. ) ;
#164 = CARTESIAN_POINT ( 'NONE',  ( -8.499999999999992895, -8.500000000000003553, -500.0000000000000000 ) ) ;
#165 = EDGE_CURVE ( 'NONE', #387, #4, #34, .T. ) ;
#166 = EDGE_CURVE ( 'NONE', #250, #374, #155, .T. ) ;
#167 = CARTESIAN_POINT ( 'NONE',  ( -8.499999999999992895, 15.99999999999999289, 500.0000000000000000 ) ) ;
#168 = APPROVAL ( #27, 'UNSPECIFIED' ) ;
#169 = VERTEX_POINT ( 'NONE', #364 ) ;
#170 = DIRECTION ( 'NONE',  ( 0.000000000000000000, 0.000000000000000000, 1.000000000000000000 ) ) ;
#171 = AXIS2_PLACEMENT_3D ( 'NONE', #192, #57, #188 ) ;
#172 = DIRECTION ( 'NONE',  ( 0.000000000000000000, 1.000000000000000000, 0.000000000000000000 ) ) ;
#173 = CARTESIAN_POINT ( 'NONE',  ( -8.499999999999992895, 8.499999999999998224, 500.0000000000000000 ) ) ;
#174 = ORIENTED_EDGE ( 'NONE', *, *, #185, .T. ) ;
#175 = CARTESIAN_POINT ( 'NONE',  ( -8.499999999999992895, -8.500000000000003553, 500.0000000000000000 ) ) ;
#176 = EDGE_LOOP ( 'NONE', ( #174, #133, #144, #147 ) ) ;
#177 = DIRECTION ( 'NONE',  ( -1.020425574104004122E-16, 1.000000000000000000, 0.000000000000000000 ) ) ;
#178 = VECTOR ( 'NONE', #139, 1000.000000000000000 ) ;
#179 = CC_DESIGN_APPROVAL ( #300, ( #337 ) ) ;
#180 = ADVANCED_FACE ( 'NONE', ( #257 ), #397, .T. ) ;
#181 = EDGE_CURVE ( 'NONE', #372, #143, #91, .T. ) ;
#182 = VERTEX_POINT ( 'NONE', #228 ) ;
#183 = LINE ( 'NONE', #253, #408 ) ;
#184 = EDGE_LOOP ( 'NONE', ( #244, #417, #84, #163 ) ) ;
#185 = EDGE_CURVE ( 'NONE', #242, #387, #359, .T. ) ;
#186 = FACE_OUTER_BOUND ( 'NONE', #75, .T. ) ;
#187 = DIRECTION ( 'NONE',  ( 1.000000000000000000, 0.000000000000000000, -0.000000000000000000 ) ) ;
#188 = DIRECTION ( 'NONE',  ( 1.000000000000000000, 0.000000000000000000, 0.000000000000000000 ) ) ;
#189 = LINE ( 'NONE', #325, #329 ) ;
#190 = PERSON_AND_ORGANIZATION ( #45, #419 ) ;
#191 = PLANE ( 'NONE',  #96 ) ;
#192 = CARTESIAN_POINT ( 'NONE',  ( 0.000000000000000000, 0.000000000000000000, 0.000000000000000000 ) ) ;
#193 = DIRECTION ( 'NONE',  ( -0.000000000000000000, -0.000000000000000000, -1.000000000000000000 ) ) ;
#194 = VECTOR ( 'NONE', #65, 1000.000000000000000 ) ;
#195 = PRODUCT_DEFINITION ( 'UNKNOWN', '', #385, #392 ) ;
#196 = LINE ( 'NONE', #424, #394 ) ;
#197 = COORDINATED_UNIVERSAL_TIME_OFFSET ( 3, 0, .AHEAD. ) ;
#198 = CARTESIAN_POINT ( 'NONE',  ( 8.500000000000001776, -8.500000000000003553, 500.0000000000000000 ) ) ;
#199 = ORIENTED_EDGE ( 'NONE', *, *, #340, .T. ) ;
#200 = CARTESIAN_POINT ( 'NONE',  ( 8.500000000000001776, -8.500000000000003553, 500.0000000000000000 ) ) ;
#201 = ADVANCED_FACE ( 'NONE', ( #295 ), #191, .F. ) ;
#202 = VECTOR ( 'NONE', #204, 1000.000000000000000 ) ;
#203 = EDGE_LOOP ( 'NONE', ( #38, #140, #114, #367 ) ) ;
#204 = DIRECTION ( 'NONE',  ( -0.000000000000000000, -0.000000000000000000, -1.000000000000000000 ) ) ;
#205 = ORIENTED_EDGE ( 'NONE', *, *, #313, .T. ) ;
#206 = CARTESIAN_POINT ( 'NONE',  ( 8.500000000000001776, -8.500000000000003553, -500.0000000000000000 ) ) ;
#207 = FACE_OUTER_BOUND ( 'NONE', #136, .T. ) ;
#208 = APPROVAL_DATE_TIME ( #227, #300 ) ;
#209 = APPROVAL_PERSON_ORGANIZATION ( #260, #48, #59 ) ;
#210 = ADVANCED_FACE ( 'NONE', ( #154 ), #126, .T. ) ;
#211 = DIRECTION ( 'NONE',  ( 1.000000000000000000, 0.000000000000000000, 0.000000000000000000 ) ) ;
#212 = ORIENTED_EDGE ( 'NONE', *, *, #371, .T. ) ;
#213 = LINE ( 'NONE', #109, #256 ) ;
#214 = ORIENTED_EDGE ( 'NONE', *, *, #310, .T. ) ;
#215 = PLANE ( 'NONE',  #323 ) ;
#216 = ORIENTED_EDGE ( 'NONE', *, *, #280, .F. ) ;
#217 = EDGE_CURVE ( 'NONE', #43, #250, #130, .T. ) ;
#218 = VECTOR ( 'NONE', #297, 1000.000000000000000 ) ;
#219 = ORIENTED_EDGE ( 'NONE', *, *, #146, .F. ) ;
#220 = CARTESIAN_POINT ( 'NONE',  ( 0.000000000000000000, 0.000000000000000000, 500.0000000000000000 ) ) ;
#221 = DIRECTION ( 'NONE',  ( 0.000000000000000000, 0.000000000000000000, -1.000000000000000000 ) ) ;
#222 = ORIENTED_EDGE ( 'NONE', *, *, #165, .T. ) ;
#223 = ORIENTED_EDGE ( 'NONE', *, *, #217, .T. ) ;
#224 = EDGE_CURVE ( 'NONE', #41, #242, #232, .T. ) ;
#225 = VECTOR ( 'NONE', #74, 1000.000000000000000 ) ;
#226 = CARTESIAN_POINT ( 'NONE',  ( -9.999999999999992895, -10.00000000000000355, 500.0000000000000000 ) ) ;
#227 = DATE_AND_TIME ( #89, #344 ) ;
#228 = CARTESIAN_POINT ( 'NONE',  ( 8.500000000000000000, 8.499999999999998224, 500.0000000000000000 ) ) ;
#229 = DIRECTION ( 'NONE',  ( 0.000000000000000000, -0.000000000000000000, -1.000000000000000000 ) ) ;
#230 = APPLICATION_PROTOCOL_DEFINITION ( 'international standard', 'config_control_design', 1994, #17 ) ;
#231 = DIRECTION ( 'NONE',  ( 0.000000000000000000, -0.000000000000000000, -1.000000000000000000 ) ) ;
#232 = LINE ( 'NONE', #435, #264 ) ;
#233 = CALENDAR_DATE ( 2022, 20, 12 ) ;
#234 = LINE ( 'NONE', #368, #350 ) ;
#235 = ORIENTED_EDGE ( 'NONE', *, *, #90, .T. ) ;
#236 = AXIS2_PLACEMENT_3D ( 'NONE', #198, #259, #63 ) ;
#237 = CARTESIAN_POINT ( 'NONE',  ( -9.999999999999992895, 15.99999999999999289, 500.0000000000000000 ) ) ;
#238 = EDGE_LOOP ( 'NONE', ( #410, #141, #50, #267 ) ) ;
#239 = CARTESIAN_POINT ( 'NONE',  ( 10.00000000000000711, -10.00000000000000355, 500.0000000000000000 ) ) ;
#240 = LINE ( 'NONE', #104, #202 ) ;
#241 = VECTOR ( 'NONE', #106, 1000.000000000000000 ) ;
#242 = VERTEX_POINT ( 'NONE', #26 ) ;
#243 = ADVANCED_FACE ( 'NONE', ( #62 ), #431, .F. ) ;
#244 = ORIENTED_EDGE ( 'NONE', *, *, #306, .T. ) ;
#245 = DIRECTION ( 'NONE',  ( 0.000000000000000000, -0.000000000000000000, 1.000000000000000000 ) ) ;
#246 = VERTEX_POINT ( 'NONE', #334 ) ;
#247 = DIRECTION ( 'NONE',  ( 0.000000000000000000, 0.000000000000000000, 1.000000000000000000 ) ) ;
#248 = ORIENTED_EDGE ( 'NONE', *, *, #166, .T. ) ;
#249 = ADVANCED_FACE ( 'NONE', ( #31 ), #360, .F. ) ;
#250 = VERTEX_POINT ( 'NONE', #42 ) ;
#251 = LOCAL_TIME ( 12, 5, 22.00000000000000000, #18 ) ;
#252 = LINE ( 'NONE', #14, #111 ) ;
#253 = CARTESIAN_POINT ( 'NONE',  ( -8.499999999999992895, 15.99999999999999289, 500.0000000000000000 ) ) ;
#254 = LINE ( 'NONE', #150, #102 ) ;
#255 = APPROVAL_STATUS ( 'not_yet_approved' ) ;
#256 = VECTOR ( 'NONE', #70, 1000.000000000000000 ) ;
#257 = FACE_OUTER_BOUND ( 'NONE', #238, .T. ) ;
#258 = PERSON_AND_ORGANIZATION ( #45, #419 ) ;
#259 = DIRECTION ( 'NONE',  ( -1.000000000000000000, -1.020425574104004122E-16, 0.000000000000000000 ) ) ;
#260 = PERSON_AND_ORGANIZATION ( #45, #419 ) ;
#261 = DIRECTION ( 'NONE',  ( 1.000000000000000000, 0.000000000000000000, -0.000000000000000000 ) ) ;
#262 = DATE_AND_TIME ( #233, #135 ) ;
#263 = DIRECTION ( 'NONE',  ( -1.000000000000000000, -1.875376730785737473E-16, -0.000000000000000000 ) ) ;
#264 = VECTOR ( 'NONE', #193, 1000.000000000000000 ) ;
#265 = CC_DESIGN_SECURITY_CLASSIFICATION ( #337, ( #385 ) ) ;
#266 = DIRECTION ( 'NONE',  ( -0.000000000000000000, -1.000000000000000000, -0.000000000000000000 ) ) ;
#267 = ORIENTED_EDGE ( 'NONE', *, *, #280, .T. ) ;
#268 = CARTESIAN_POINT ( 'NONE',  ( -8.499999999999992895, 15.99999999999999289, 500.0000000000000000 ) ) ;
#269 = UNCERTAINTY_MEASURE_WITH_UNIT (LENGTH_MEASURE( 1.000000000000000082E-05 ), #398, 'distance_accuracy_value', 'NONE');
#270 = DIRECTION ( 'NONE',  ( -0.000000000000000000, -0.000000000000000000, -1.000000000000000000 ) ) ;
#271 = VECTOR ( 'NONE', #437, 1000.000000000000000 ) ;
#272 = LINE ( 'NONE', #134, #291 ) ;
#273 = PRODUCT_RELATED_PRODUCT_CATEGORY ( 'detail', '', ( #386 ) ) ;
#274 = ORIENTED_EDGE ( 'NONE', *, *, #378, .T. ) ;
#275 = CARTESIAN_POINT ( 'NONE',  ( 8.500000000000000000, 8.499999999999998224, -500.0000000000000000 ) ) ;
#276 = VECTOR ( 'NONE', #406, 1000.000000000000000 ) ;
#277 = EDGE_CURVE ( 'NONE', #369, #143, #37, .T. ) ;
#278 = EDGE_LOOP ( 'NONE', ( #318, #219, #79, #274 ) ) ;
#279 = ORIENTED_EDGE ( 'NONE', *, *, #24, .T. ) ;
#280 = EDGE_CURVE ( 'NONE', #49, #43, #240, .T. ) ;
#281 = FACE_OUTER_BOUND ( 'NONE', #278, .T. ) ;
#282 = EDGE_LOOP ( 'NONE', ( #46, #212, #223, #248 ) ) ;
#283 = ORIENTED_EDGE ( 'NONE', *, *, #306, .F. ) ;
#284 = CARTESIAN_POINT ( 'NONE',  ( -8.499999999999992895, -8.500000000000003553, 500.0000000000000000 ) ) ;
#285 = DIRECTION ( 'NONE',  ( -1.000000000000000000, -1.875376730785737473E-16, -0.000000000000000000 ) ) ;
#286 = CC_DESIGN_PERSON_AND_ORGANIZATION_ASSIGNMENT ( #331, #158, ( #195 ) ) ;
#287 = DIRECTION ( 'NONE',  ( 1.000000000000000000, 0.000000000000000000, 0.000000000000000000 ) ) ;
#288 = APPROVAL_ROLE ( '' ) ;
#289 = CARTESIAN_POINT ( 'NONE',  ( -8.499999999999992895, 8.499999999999998224, -500.0000000000000000 ) ) ;
#290 = EDGE_CURVE ( 'NONE', #143, #418, #39, .T. ) ;
#291 = VECTOR ( 'NONE', #211, 1000.000000000000000 ) ;
#292 = VECTOR ( 'NONE', #307, 1000.000000000000000 ) ;
#293 = DIRECTION ( 'NONE',  ( -0.000000000000000000, -0.000000000000000000, -1.000000000000000000 ) ) ;
#294 = MECHANICAL_CONTEXT ( 'NONE', #17, 'mechanical' ) ;
#295 = FACE_OUTER_BOUND ( 'NONE', #176, .T. ) ;
#296 = PERSON_AND_ORGANIZATION ( #45, #419 ) ;
#297 = DIRECTION ( 'NONE',  ( -0.000000000000000000, -1.000000000000000000, -0.000000000000000000 ) ) ;
#298 = PERSON_AND_ORGANIZATION_ROLE ( 'creator' ) ;
#299 = DIRECTION ( 'NONE',  ( 0.000000000000000000, -1.000000000000000000, 0.000000000000000000 ) ) ;
#300 = APPROVAL ( #255, 'UNSPECIFIED' ) ;
#301 = AXIS2_PLACEMENT_3D ( 'NONE', #226, #287, #221 ) ;
#302 = ORIENTED_EDGE ( 'NONE', *, *, #339, .T. ) ;
#303 = LINE ( 'NONE', #36, #225 ) ;
#304 = APPLICATION_CONTEXT ( 'configuration controlled 3d designs of mechanical parts and assemblies' ) ;
#305 = EDGE_CURVE ( 'NONE', #169, #418, #370, .T. ) ;
#306 = EDGE_CURVE ( 'NONE', #418, #242, #312, .T. ) ;
#307 = DIRECTION ( 'NONE',  ( -0.000000000000000000, -0.000000000000000000, -1.000000000000000000 ) ) ;
#308 = VECTOR ( 'NONE', #421, 1000.000000000000000 ) ;
#309 = ORIENTED_EDGE ( 'NONE', *, *, #185, .F. ) ;
#310 = EDGE_CURVE ( 'NONE', #11, #4, #303, .T. ) ;
#311 = ORIENTED_EDGE ( 'NONE', *, *, #384, .F. ) ;
#312 = LINE ( 'NONE', #72, #241 ) ;
#313 = EDGE_CURVE ( 'NONE', #333, #11, #375, .T. ) ;
#314 = ORIENTED_EDGE ( 'NONE', *, *, #125, .T. ) ;
#315 = CARTESIAN_POINT ( 'NONE',  ( 8.500000000000001776, -8.500000000000003553, 500.0000000000000000 ) ) ;
#316 = EDGE_CURVE ( 'NONE', #182, #49, #412, .T. ) ;
#317 = AXIS2_PLACEMENT_3D ( 'NONE', #5, #390, #245 ) ;
#318 = ORIENTED_EDGE ( 'NONE', *, *, #166, .F. ) ;
#319 = CARTESIAN_POINT ( 'NONE',  ( -8.499999999999991118, 9.999999999999994671, 500.0000000000000000 ) ) ;
#320 = DIRECTION ( 'NONE',  ( 1.000000000000000000, 0.000000000000000000, 0.000000000000000000 ) ) ;
#321 = CC_DESIGN_DATE_AND_TIME_ASSIGNMENT ( #262, #401, ( #195 ) ) ;
#322 = ORIENTED_EDGE ( 'NONE', *, *, #181, .F. ) ;
#323 = AXIS2_PLACEMENT_3D ( 'NONE', #319, #9, #118 ) ;
#324 = PERSON_AND_ORGANIZATION ( #45, #419 ) ;
#325 = CARTESIAN_POINT ( 'NONE',  ( 8.500000000000000000, 8.499999999999998224, 500.0000000000000000 ) ) ;
#326 = APPROVAL_DATE_TIME ( #55, #168 ) ;
#327 = DIRECTION ( 'NONE',  ( 0.000000000000000000, 1.000000000000000000, 0.000000000000000000 ) ) ;
#328 = CC_DESIGN_DATE_AND_TIME_ASSIGNMENT ( #121, #156, ( #337 ) ) ;
#329 = VECTOR ( 'NONE', #113, 1000.000000000000000 ) ;
#330 = DIRECTION ( 'NONE',  ( 0.000000000000000000, 1.000000000000000000, 0.000000000000000000 ) ) ;
#331 = PERSON_AND_ORGANIZATION ( #45, #419 ) ;
#332 = CARTESIAN_POINT ( 'NONE',  ( 0.000000000000000000, 0.000000000000000000, -500.0000000000000000 ) ) ;
#333 = VERTEX_POINT ( 'NONE', #239 ) ;
#334 = CARTESIAN_POINT ( 'NONE',  ( -8.499999999999991118, 9.999999999999994671, 500.0000000000000000 ) ) ;
#335 = VERTEX_POINT ( 'NONE', #275 ) ;
#336 = CARTESIAN_POINT ( 'NONE',  ( -8.499999999999992895, -8.500000000000003553, 500.0000000000000000 ) ) ;
#337 = SECURITY_CLASSIFICATION ( '', '', #124 ) ;
#338 = CARTESIAN_POINT ( 'NONE',  ( -8.499999999999992895, 15.99999999999999289, 500.0000000000000000 ) ) ;
#339 = EDGE_CURVE ( 'NONE', #246, #372, #213, .T. ) ;
#340 = EDGE_CURVE ( 'NONE', #41, #333, #272, .T. ) ;
#341 = DIRECTION ( 'NONE',  ( -1.000000000000000000, -0.000000000000000000, -0.000000000000000000 ) ) ;
#342 = DIRECTION ( 'NONE',  ( -1.000000000000000000, 0.000000000000000000, 0.000000000000000000 ) ) ;
#343 =( GEOMETRIC_REPRESENTATION_CONTEXT ( 3 ) GLOBAL_UNCERTAINTY_ASSIGNED_CONTEXT ( ( #269 ) ) GLOBAL_UNIT_ASSIGNED_CONTEXT ( ( #398, #358, #430 ) ) REPRESENTATION_CONTEXT ( 'NONE', 'WORKASPACE' ) );
#344 = LOCAL_TIME ( 12, 5, 22.00000000000000000, #395 ) ;
#345 = ORIENTED_EDGE ( 'NONE', *, *, #316, .F. ) ;
#346 = ORIENTED_EDGE ( 'NONE', *, *, #217, .F. ) ;
#347 = DIRECTION ( 'NONE',  ( -1.000000000000000000, -2.891205793294679312E-16, 0.000000000000000000 ) ) ;
#348 = ORIENTED_EDGE ( 'NONE', *, *, #165, .F. ) ;
#349 = DIRECTION ( 'NONE',  ( -0.000000000000000000, -0.000000000000000000, -1.000000000000000000 ) ) ;
#350 = VECTOR ( 'NONE', #263, 1000.000000000000000 ) ;
#351 = APPROVAL_PERSON_ORGANIZATION ( #190, #168, #288 ) ;
#352 = ORIENTED_EDGE ( 'NONE', *, *, #132, .F. ) ;
#353 = FACE_OUTER_BOUND ( 'NONE', #413, .T. ) ;
#354 = CARTESIAN_POINT ( 'NONE',  ( 10.00000000000000711, 9.999999999999998224, 500.0000000000000000 ) ) ;
#355 = VECTOR ( 'NONE', #341, 1000.000000000000000 ) ;
#356 = CARTESIAN_POINT ( 'NONE',  ( 10.00000000000000711, -10.00000000000000355, -500.0000000000000000 ) ) ;
#357 = CARTESIAN_POINT ( 'NONE',  ( 10.00000000000000711, 9.999999999999998224, -500.0000000000000000 ) ) ;
#358 =( NAMED_UNIT ( * ) PLANE_ANGLE_UNIT ( ) SI_UNIT ( $, .RADIAN. ) );
#359 = LINE ( 'NONE', #402, #76 ) ;
#360 = PLANE ( 'NONE',  #414 ) ;
#361 = ADVANCED_FACE ( 'NONE', ( #207 ), #407, .F. ) ;
#362 = APPLICATION_PROTOCOL_DEFINITION ( 'international standard', 'config_control_design', 1994, #304 ) ;
#363 = APPROVAL_PERSON_ORGANIZATION ( #296, #300, #128 ) ;
#364 = CARTESIAN_POINT ( 'NONE',  ( -9.999999999999992895, 15.99999999999999289, 500.0000000000000000 ) ) ;
#365 = APPROVAL_STATUS ( 'not_yet_approved' ) ;
#366 = FACE_OUTER_BOUND ( 'NONE', #131, .T. ) ;
#367 = ORIENTED_EDGE ( 'NONE', *, *, #277, .T. ) ;
#368 = CARTESIAN_POINT ( 'NONE',  ( -8.499999999999991118, 9.999999999999994671, -500.0000000000000000 ) ) ;
#369 = VERTEX_POINT ( 'NONE', #167 ) ;
#370 = LINE ( 'NONE', #237, #40 ) ;
#371 = EDGE_CURVE ( 'NONE', #335, #43, #373, .T. ) ;
#372 = VERTEX_POINT ( 'NONE', #44 ) ;
#373 = LINE ( 'NONE', #1, #355 ) ;
#374 = VERTEX_POINT ( 'NONE', #206 ) ;
#375 = LINE ( 'NONE', #78, #6 ) ;
#376 = ORIENTED_EDGE ( 'NONE', *, *, #339, .F. ) ;
#377 = ORIENTED_EDGE ( 'NONE', *, *, #290, .F. ) ;
#378 = EDGE_CURVE ( 'NONE', #159, #374, #438, .T. ) ;
#379 = CARTESIAN_POINT ( 'NONE',  ( -9.999999999999992895, 15.99999999999999289, -500.0000000000000000 ) ) ;
#380 = ORIENTED_EDGE ( 'NONE', *, *, #310, .F. ) ;
#381 = CARTESIAN_POINT ( 'NONE',  ( -8.499999999999992895, -8.500000000000003553, 500.0000000000000000 ) ) ;
#382 = ORIENTED_EDGE ( 'NONE', *, *, #35, .F. ) ;
#383 = LINE ( 'NONE', #284, #308 ) ;
#384 = EDGE_CURVE ( 'NONE', #77, #159, #107, .T. ) ;
#385 = PRODUCT_DEFINITION_FORMATION_WITH_SPECIFIED_SOURCE ( 'ANY', '', #386, .NOT_KNOWN. ) ;
#386 = PRODUCT ( '\X2\042104420435043b043b04300436043d044b0439\X0\ \X2\043f0440043e04440438043b044c\X0\ 20\X2\0445\X0\26 \X2\0420\X0\-\X2\043e0431044004300437043d044b0439\X0\', '\X2\042104420435043b043b04300436043d044b0439\X0\ \X2\043f0440043e04440438043b044c\X0\ 20\X2\0445\X0\26 \X2\0420\X0\-\X2\043e0431044004300437043d044b0439\X0\', '', ( #294 ) ) ;
#387 = VERTEX_POINT ( 'NONE', #356 ) ;
#388 = PLANE ( 'NONE',  #439 ) ;
#389 = DIRECTION ( 'NONE',  ( -1.000000000000000000, -0.000000000000000000, -0.000000000000000000 ) ) ;
#390 = DIRECTION ( 'NONE',  ( 0.000000000000000000, 1.000000000000000000, 0.000000000000000000 ) ) ;
#391 = DIRECTION ( 'NONE',  ( 1.000000000000000000, 0.000000000000000000, 0.000000000000000000 ) ) ;
#392 = DESIGN_CONTEXT ( 'detailed design', #304, 'design' ) ;
#393 = LINE ( 'NONE', #87, #32 ) ;
#394 = VECTOR ( 'NONE', #266, 1000.000000000000000 ) ;
#395 = COORDINATED_UNIVERSAL_TIME_OFFSET ( 3, 0, .AHEAD. ) ;
#396 = ADVANCED_FACE ( 'NONE', ( #281 ), #86, .T. ) ;
#397 = PLANE ( 'NONE',  #123 ) ;
#398 =( LENGTH_UNIT ( ) NAMED_UNIT ( * ) SI_UNIT ( .MILLI., .METRE. ) );
#399 = CARTESIAN_POINT ( 'NONE',  ( -8.499999999999992895, 8.499999999999998224, 500.0000000000000000 ) ) ;
#400 = FACE_BOUND ( 'NONE', #282, .T. ) ;
#401 = DATE_TIME_ROLE ( 'creation_date' ) ;
#402 = CARTESIAN_POINT ( 'NONE',  ( -9.999999999999992895, -10.00000000000000355, -500.0000000000000000 ) ) ;
#403 = CARTESIAN_POINT ( 'NONE',  ( 10.00000000000000711, -10.00000000000000355, -500.0000000000000000 ) ) ;
#404 = EDGE_CURVE ( 'NONE', #159, #182, #145, .T. ) ;
#405 = ADVANCED_FACE ( 'NONE', ( #186 ), #13, .T. ) ;
#406 = DIRECTION ( 'NONE',  ( -1.000000000000000000, -0.000000000000000000, -0.000000000000000000 ) ) ;
#407 = PLANE ( 'NONE',  #54 ) ;
#408 = VECTOR ( 'NONE', #12, 1000.000000000000000 ) ;
#409 = ADVANCED_FACE ( 'NONE', ( #85 ), #215, .F. ) ;
#410 = ORIENTED_EDGE ( 'NONE', *, *, #371, .F. ) ;
#411 = CARTESIAN_POINT ( 'NONE',  ( 8.500000000000001776, -8.500000000000003553, 500.0000000000000000 ) ) ;
#412 = LINE ( 'NONE', #173, #276 ) ;
#413 = EDGE_LOOP ( 'NONE', ( #279, #30, #117, #314, #199, #205 ) ) ;
#414 = AXIS2_PLACEMENT_3D ( 'NONE', #60, #342, #170 ) ;
#415 = EDGE_LOOP ( 'NONE', ( #112, #376, #73, #214 ) ) ;
#416 = ADVANCED_FACE ( 'NONE', ( #353, #115 ), #388, .T. ) ;
#417 = ORIENTED_EDGE ( 'NONE', *, *, #224, .F. ) ;
#418 = VERTEX_POINT ( 'NONE', #148 ) ;
#419 = ORGANIZATION ( 'UNSPECIFIED', 'UNSPECIFIED', '' ) ;
#420 = ORIENTED_EDGE ( 'NONE', *, *, #22, .T. ) ;
#421 = DIRECTION ( 'NONE',  ( -0.000000000000000000, -1.000000000000000000, -0.000000000000000000 ) ) ;
#422 = CC_DESIGN_PERSON_AND_ORGANIZATION_ASSIGNMENT ( #324, #432, ( #337 ) ) ;
#423 = CALENDAR_DATE ( 2022, 20, 12 ) ;
#424 = CARTESIAN_POINT ( 'NONE',  ( -9.999999999999992895, 9.999999999999998224, 500.0000000000000000 ) ) ;
#425 = VECTOR ( 'NONE', #330, 1000.000000000000000 ) ;
#426 = PERSON_AND_ORGANIZATION_ROLE ( 'design_supplier' ) ;
#427 = CARTESIAN_POINT ( 'NONE',  ( -8.499999999999992895, 15.99999999999999289, -500.0000000000000000 ) ) ;
#428 = CALENDAR_DATE ( 2022, 20, 12 ) ;
#429 = CARTESIAN_POINT ( 'NONE',  ( 8.500000000000001776, -8.500000000000003553, -500.0000000000000000 ) ) ;
#430 =( NAMED_UNIT ( * ) SI_UNIT ( $, .STERADIAN. ) SOLID_ANGLE_UNIT ( ) );
#431 = PLANE ( 'NONE',  #433 ) ;
#432 = PERSON_AND_ORGANIZATION_ROLE ( 'classification_officer' ) ;
#433 = AXIS2_PLACEMENT_3D ( 'NONE', #93, #129, #229 ) ;
#434 = ORIENTED_EDGE ( 'NONE', *, *, #277, .F. ) ;
#435 = CARTESIAN_POINT ( 'NONE',  ( -9.999999999999992895, -10.00000000000000355, 500.0000000000000000 ) ) ;
#436 = EDGE_CURVE ( 'NONE', #49, #77, #383, .T. ) ;
#437 = DIRECTION ( 'NONE',  ( -1.000000000000000000, -0.000000000000000000, -0.000000000000000000 ) ) ;
#438 = LINE ( 'NONE', #411, #178 ) ;
#439 = AXIS2_PLACEMENT_3D ( 'NONE', #220, #247, #187 ) ;
ENDSEC;
END-ISO-10303-21;
